Song name
# A B C D E F G H I J K L M N O P Q R S T U V W X Y Z

Dave Matthews Band - Where Are You Going tab

-------------------------------------------------------------------------------
			     Where Are You Going - Dave Matthews Band
-------------------------------------------------------------------------------
Tabbed by: hockeynut100
Email: hockeynut100@comcast.net

Tuning: Standard

Where Are You Going
Dave Matthews Band
Songs for Tibet-The Art of Peace

Great song, this is from the Live in Copenhagen version with Tim Reynolds on the Album 
for Tibet - The Art of Peace."
There were a bunch of tabs for just the verse and chorus, but none for the solo. I 
to know the song and especially the
solo for a gig but I could not find it anywhere. So here it is, enjoy.
__________________________________________
Dsus2-      x00230
Asus4(add9)-x20230
Asus-       x02230
Am add11-   x30230
A#maj7-     x10230
D/F-        100232
G-          320033
D-          xx0232
C-          x3555x
___________________________________________

Intro        Dsus2
e|---------------------------------------------------------------------------|
B|-----3-3-3-3-------3--3-3-3-------3-3-3-3-------3-3-3-3--------------------|
G|-0h2---2-2-----0h2----2-2-----0h2---2-2-----0h2---2-2----------------------|
D|-------0-0---0--------0-0---0-------0-0---0-------0-0----------------------|
A|-------0-0------------0-0-----------0-0-----------0-0----------------------|
E|---------------------------------------------------------------------------|

Verse 1    Dsus2           Dsus2           Asus4(add9)          Asus
e|---------------------------------------------------------------------------|
B|-----3--3-3--3-3------3--3-3--3-3------3---3-3--3-3------3---3-3--3-3------|
G|-0h2----2-2--2-2--0h2----2-2--2-2--0h2-----2-2--2-2--0h2-----2-2--2-2------|
D|------0-0-0--0-0---------0-0--0-0----------0-0--0-0----------2-2--2-2------|
A|--------0-0--0-0---------0-0--0-0--------2-2-2--2-2--------0-0-0--0-0------|
E|-----------------------3---------------------------------------------------|

Dsus2
   Where are you going?

Asus4
   With your long face

Asus
   Pulling down

Dsus2
   Don't hide away

Dsus2
     Like an ocean

Asus4
    That you can't see but you can smell

Asus
    And the sound of the waves crash down


Chorus                             x2
e|---------------------3--------------|
B|---3-----3-----3-----3--------------|
G|---2-----2-----2-----0--------------|
D|-0-0-0---0-0---0-0---0--------------|
A|-------3-----2-----1----------------|
E|------------------------------------|

Asus4     Am add11     Asus4(add9)     A#maj7

I am no Superman

I have no answers for you

I am no hero

Oh, that's for sure

      D/F              G
But I do know one thing

      G                      D
Is where you are is where I belong

     C
I do know where you go

                     Dsus2
Is where I want to be

Verse 2-*chords same as verse 1

Where are you going?

Where do you go?

Are you looking for answers

To questions under the stars?

Well, if along the way

You are grown weary

You can rest with me until

A brighter day and you're okay


Chorus


Transition
Dsus2     Asus4(add9)     Asus

Where are you going?

Where do you go?


Solo Chords- *G to D is a quick transition
    G    D     Bm     C
e|--3----2-----2-----------|
B|--3----3-----3------5----|
G|--0----2-----4------5----|
D|--0----0-----4------5----|
A|--2----------2------3----|
E|--3----------------------|

Solo
e|------8-10/12-12-12-12-12/14-14\12-10-10h12p10p7h10p7-----7----------7-10-7-|
B|-8-10-------------------------------------------------10---10---8-10--------|
G|----------------------------------------------------------------------------|
D|----------------------------------------------------------------------------|
A|----------------------------------------------------------------------------|
E|----------------------------------------------------------------------------|

e|---7----7--------------------------777/888/10-10-10/12-12-12-14b15-12-------|
B|-10--10---10-10-8--777/888/10-10-10----------------------------------15--15-|
G|----------------------------------------------------------------------------|
D|----------------------------------------------------------------------------|
A|----------------------------------------------------------------------------|
E|----------------------------------------------------------------------------|

e|-12b14r12-10-------10-12-12-10--10-----------------------7----7-8--7-10-12--777-5-7b777r-|
B|-------------12-12------------12--12-10-12--7-8-10--8-10---10----------------------------|
G|-----------------------------------------------------------------------------------------|
D|-----------------------------------------------------------------------------------------|
A|-----------------------------------------------------------------------------------------|
E|-----------------------------------------------------------------------------------------|

Dsus2           Dsus2           Asus4(add9)          Asus

Where do you go?

Where are you going?

Where do you go?


Chorus


Outro-*Chords same as the verse

Where are you going?

Where do you go?

Tell me, where are you going?

Where?

Well, let's go


*End the same as intro

************************************

| /   slide up
| \   slide down
| h   hammer-on
| p   pull-off
| x   Mute note
| b   Bend
| r   Bend release

************************************
Tap to rate this tab
 
# A B C D E F G H I J K L M N O P Q R S T U V W X Y Z