Song name
# A B C D E F G H I J K L M N O P Q R S T U V W X Y Z

Dave Matthews Band - Stay Wasting Time tab

Alright, there was only a power tab for this song, so i thought i'd put a regular 
on here.

The intro and verse is like this:

E----------------------------------------------------------|
B----------------------------------------------------------|
G---10-10-x-x-10-8-7-8-88-7-8-88/--------------------------|
D---8--8--x-x-8--8-5-5-55-6-6-66/--------------------------|
A---x--x--x-x-x--x-x-x-xx-x-x-xx---------------------------|
E----------------------------------------------------------|

You play that four times for the intro, and then during the verse you play it 8 times. 
it's the chorus, which goes like:

E-------------------------|
B-------------------------|
G-7--10-7--5--7--10-7-----|
D-8--8--8--5--8--8--8--3--|
A-6--8--6--3--6--8--6--3--|
E----------------------1--|

And then back to the verse and such, and then there's the interlude part with the 
line that goes like this:

E-------------------------------|
B-------------------------------|
G-------------------------------|
D----8-8------------------------|
A-----7-7---------10---6-7-8----|
E-6-------6-7-8-8---8-----------|

And that's all the different parts of the song you need to know how to play. RIP LeRoi 
the man who wrote this song and probably the greatest saxophone player ever.
Tap to rate this tab
 
# A B C D E F G H I J K L M N O P Q R S T U V W X Y Z