Song name
# A B C D E F G H I J K L M N O P Q R S T U V W X Y Z

Dave Matthews Band - Build You A House tab

Tabbed by: Nick Freeman
Artist: Dave Matthews Band
Album: Lillywhite Sessions

Notes: Slide = /

Verse

------------------------------------------------------|
--1--3--3/5-----1--1--1-----0--1--3-----1-----1-------|
--0--0--0/0--------2--0-----0--0--0-----0-----0-------|
----------------3--3--3--------------------2----------|
--3--3--3-3-----------------------------3-------------|
----------------------------3--3--3-------------------|

Chorus

--3----3----3----1----3--------------------------------|
--1----3----3----1----3--------------------------------|
--0----0--------------4--------------------------------|
------------5----3-/--5--------------------------------|
--3----3-----------------------------------------------|
-------------------------------------------------------|


Outro

(3X)
--------------------------------------------------------|
--3-----3------1-----1--1-----1-------------------------|
-----0------------0--------0----------------------------|
--0------------0--------0-------------------------------|
--------------------------------------------------------|
--------------------------------------------------------|
Tap to rate this tab
 
# A B C D E F G H I J K L M N O P Q R S T U V W X Y Z