Song name
# A B C D E F G H I J K L M N O P Q R S T U V W X Y Z

Dave Matthews Band - Where Are You Going ? tab

INTRO

     4   +    1   +   2   +   3   +   4   +    1   +   2   +   3   +   4   +

 e ||O-------|--------5-----5---5-----3h5-----|--------5-----5---5-----3h5-----|
 B ||------3-|--------3-----3---3-----------3-|--------3-----3---3-----------3-|
 G ||0h2-----|--------2-----2---2-----0h2-----|0-------2-----2---2-----0h2-----|
 D ||--------|0-------------------0-----------|--------------------0-----------|
 A ||--------|--------------------------------|--------------------------------|
 E ||--------|--------------------------------|--------------------------------|


    1   +   2   +   3   +   4   +    1   +   2   +   3   +   4   +

 e |--------2-----2---2-----3h5-----|--------0-----0---0-----3h5-----|
 B |0-------3-----3---3-----------3-|--------3-----3---3-----------3-|
 G |--------2-----2---2-----0h2-----|2-------2-----2---2-----0h2-----|
 D |--------------------0-----------|--------------------0-----------|
 A |--------------------------------|--------------------------------|
 E |--------------------------------|--------------------------------|



_________________________________________________________________________________
VERSE                                                                      _
                                                                            |
    1   +   2   +   3   +   4   +    1   +   2   +   3   +   4   +          |
1                   where are you going                  with your long     |
2                       like an ocean                    but you can't      |
                                                                            |
 e |--------5-----5---5-----3h5-----|--------5-----5---5-----3h5-----|      |
 B |--------3-----3---3-----------3-|--------3-----3---3-----------3-|      |
 G |--------2-----2---2-----0h2-----|--------0-----0---0-----0h2-----|      |
 D |0-------------------0-----------|--------0-----0---0-------------|      |
 A |--------------------------------|--------------------------------|      |
 E |--------------------------------|3-------------------3-----------|      |
                                                                            | play
                                                                            | 2x
    1   +   2   +   3   +   4   +    1   +   2   +   3   +   4   +          |
1   face                    pulling  down                don't hide away    |
2   see   but you can   smell   and  the sound       waves   crash          |
                                                                            |
 e |--------2-----2---2-----3h5-----|--------0-----0---0-----3h5-----|      |
 B |--------3-----3---3-----------3-|--------3-----3---3-----------3-|      |
 G |--------0-----0---0-----0h2-----|--------2-----2---2-----0h2-----|      |
 D |--------0-----0---0-------------|--------2-----2---2-------------|      |
 A |2-------------------2-----------|0-------------------0-----------|      |
 E |--------------------------------|--------------------------------|      |
                                                                           _|


_________________________________________________________________________________
CHORUS                                                                     _
                                                                            |
    1   +   2   +   3   +   4   +    1   +   2   +   3   +   4   +          |
1   down    i       am      no       su----per   man                        |
2           i       have    no  rea------sons                for you        |
3           i       am      no       he----ro    oh      that's for sure    |
                                                                            | play
 e |--------5-----5---------5-----5-|--------3-----3---3-----3-----3-|      | 3x
 B |--------3-----3---------3-----3-|--------3-----3---3-----3-----3-|      |
 G |--------2-----2---------0-----0-|--------0-----0---0-----0-----0-|      |
 D |0-------------------------------|--------------------------------|      |
 A |----------------3---------------|2---------------1---------------|      |
 E |--------------------------------|--------------------------------|      |
                                                                           _|


    1   +   2   +   3   +   4   +    1   +   2   +   3   +   4   +
            but i   do    know  one  thing               is  where you

 e |--------5-----5---------5-----5-|--------3-----3---3-----3-----3-|
 B |--------3-----3---------3-----3-|--------3-----3---3-----3-----3-|
 G |--------2-----2---------2-----2-|--------0-----0---0-----0-----0-|
 D |0-------------------------------|--------------------------------|
 A |----------------3---------------|1-------------------1-----------|
 E |--------------------------------|--------------------------------|


    1   +   2   +   3   +   4   +    1   +   2   +   3   +   4   +
    are         is  where i belong                               i

 e |--3-----3-----3---3-----3-------|5-------5-----5---5-----5-------|
 B |--3-----3-----3---3-----3-------|3-------3-----3---3-----3-------|
 G |--0-----0-----0---0-----0-------|2-------2-----2---2-----2-------|
 D |--------------------------------|0-------------------0-----------|
 A |1---------------1---------------|--------------------------------|
 E |--------------------------------|--------------------------------|


    1   +   2   +   3   +   4   +    1   +   2   +   3   +   4   +
    do  know    where you go                     is  where i wanna be

 e |--------------------------------|--------------------------------|
 B |3-------3-----3---3-----3-----3-|--3-----3-----3---3-----3-------|
 G |4-------4-----4---4-----4-----4-|--4-----4-----4---4-----4-------|
 D |2-------2-----2---2-----2-----2-|--2-----2-----2---2-----2-------|
 A |3---------------3---------------|3---------------3---------------|
 E |--------------------------------|--------------------------------|



Tap to rate this tab
 
# A B C D E F G H I J K L M N O P Q R S T U V W X Y Z