Song name
# A B C D E F G H I J K L M N O P Q R S T U V W X Y Z

Dave Matthews Band - Little Red Bird tab

Verse:

E|-2-----0-----0---------------|
B|-3---3-----3---2/3-2---2-----|
G|---2-----0-----------0-------|
D|-0-------------3/4-2---------|
A|-----------------------------|
E|-----------------------------|

E|-----------------------------|
B|-0-----3-----0-----0---------|
G|-0---0-2---2-0---0-----0-----|
D|---0-----0-----2---------2---|
A|-----------------------------|
E|-3-----2-----0-------0-------|
   t	 t

E|-----------------------------|
B|-0-----3-----3-----3---------|
G|-0---0-2---2-0---0-----0-----|
D|---2-----0-----0---------0---|
A|-----------------------------|
E|-0-----2-----3-------3-------|
	 t     t       t

E|-----------------------------|
B|-2-----2-------2-----2-------|
G|-2---2-----2---2---2-----2---|
D|---2---------2---2---------2-|
A|-0-------0-----0-------0-----|
E|-----------------------------|

Transition:

E|-2-----0-----0---------------|
B|-3---3-----3---2/3-----------|
G|---2-----0-------------------|
D|-0-------------3/4-----------|
A|-----------------------------|
E|-----------------------------|

Chorus:

E|-----------------------------|
B|-0-----3-----0-----0---------|
G|-0---0-2---2-0---0-----0-----|
D|---0-----0-----2---------2---|
A|-----------------------------|
E|-3-----2-----0-------0-------|
   t	 t

E|-----------------------------|
B|-0-----3-----3-----3---------|
G|-0---0-2---2-0---0-----0-----|
D|---2-----0-----0---------0---|
A|-----------------------------|
E|-0-----2-----3-------3-------|
	 t     t       t

E|-----------------------------|
B|-2-----2-------2-----2-------|
G|-2---2-----2---2---2-----2---|
D|---2---------2---2---------2-|
A|-0-------0-----0-------0-----|
E|-----------------------------|

Transition

Break:

E|-----------------------------------------|
B|-----------------------------------3-----|
G|-------0-2-------0-2-------0-2-----4-----|
D|-0-2-4-----0-2-4-----0-2-4---------4-----|
A|-------------------------------4-2-2-0---|
E|---------------------------------------3-|

E|-----------------------------------------|
B|-----------------------------------3-2---|
G|-------0-2-------0-2-------0-2-----0-2---|
D|-0-2-4-----0-2-4-----0-2-4---------2-2---|
A|-----------------------------------2-0---|
E|-------------------------------2-0-------|

Transition


Lyrics:

   Little red bird under a chair
   Waiting for the crumbs to fall
   Daddy said "get a job"
   But don't you see, daddy, how good I am at catching crumbs?

   Guns and gods and little red birds
   Guns and gods and little red birds
   Don't you see, daddy, how good I am at catching crumbs?

   General Custer it's said overestimated
   His abilities to win
   Sitting Bull turned the tables on him
   Comfort to count the battles won after the war is lost

   Guns and gods and little red birds
   Guns and gods and little red birds
   Comfort to count the battles won after the war is lost

   If there was a place hidden in the stars
   Reflecting on heaven's graces
   If God had an honest face
   A troubled expression would be watching over the human race
Tap to rate this tab
 
# A B C D E F G H I J K L M N O P Q R S T U V W X Y Z