Song name
# A B C D E F G H I J K L M N O P Q R S T U V W X Y Z

Dave Matthews Band - Where Are You Going tab

-------------------------------------------------------------------------------
			     Where Are You Going Solo - Dave Matthews Band
-------------------------------------------------------------------------------
Tabbed by: hockeynut100
Tuning: Standard

Song:  Where Are You Going? (Live with Tim Reynolds)
Artist: Dave Matthews Band
Album: "Songs for Tibet - The Art of Peace"

This is how to play that short solo in the live version of Where Are You Going. It comes 
around 2:10 in the song and
ends around 2:30. I needed to learn it for a gig but no one had the right tab so I did 
myself. Enjoy.


e|------8-10/12-12-12-12-12/14-14\12-10-10h12p10p7h10p7-----7----------7-10-7-|
B|-8-10-------------------------------------------------10---10---8-10--------|
G|----------------------------------------------------------------------------|
D|----------------------------------------------------------------------------|
A|----------------------------------------------------------------------------|
E|----------------------------------------------------------------------------|

e|---7----7--------------------------777/888/10-10-10/12-12-12-14b15-12-------|
B|-10--10---10-10-8--777/888/10-10-10----------------------------------15--15-|
G|----------------------------------------------------------------------------|
D|----------------------------------------------------------------------------|
A|----------------------------------------------------------------------------|
E|----------------------------------------------------------------------------|

e|-12b14r12-10-------10-12-12-10--10-----------------------7----7-8--7-10-12--777-5-7b777r-|
B|-------------12-12------------12--12-10-12--7-8-10--8-10---10----------------------------|
G|-----------------------------------------------------------------------------------------|
D|-----------------------------------------------------------------------------------------|
A|-----------------------------------------------------------------------------------------|
E|-----------------------------------------------------------------------------------------|
Tap to rate this tab
 
# A B C D E F G H I J K L M N O P Q R S T U V W X Y Z