Song name
# A B C D E F G H I J K L M N O P Q R S T U V W X Y Z

Dave Matthews Band - Alligator Pie tab

Alligator Pie by Dave Matthews Band
Tabbed by Kevin Dorth
Standard Tuning

Listen to the song and play along to get the timing.
Play chords where I've written more than one note at a time.

Intro and Verse:
e|--------(2)--------------|
B|---------5---------------|
G|---5-4-2---2---5-4-2-5-7-|
D|---------------------5-7-|
A|-0-----------0-------3-5-|
E|-------------------------|

e|-----------| x 3
B|-----------|
G|-----------|
D|-7-5-7-9-7-|
A|-X-X-X-X-X-|
E|-5-3-5-7-5-|

e|-----|
B|-----|
G|-5-7-|
D|-5-7-|
A|-3-5-|
E|-----|

e|-----------| x 3
B|-----------|
G|-----------|
D|-7-5-7-9-7-|
A|-X-X-X-X-X-|
E|-5-3-5-7-5-|

e|-----|
B|-----|
G|-5-7-|
D|-5-7-|
A|-3-5-|
E|-----|

Repeat the verse and play with the song as it starts out slow and gets faster.

Bridge:
e|-0-3-2-0-3-0-3-0-|
B|-0-2-2-0-2-0-2-0-|
G|-1-3-2-1-2-1-3-1-|
D|-2-0-4-2-0-2-0-2-|
A|-2---4-2---2---2-|
E|-0---2-0---0---0-|

Then return to the verse.
Tap to rate this tab
# A B C D E F G H I J K L M N O P Q R S T U V W X Y Z