Guitaretab - guitar tabs
Song name
# A B C D E F G H I J K L M N O P Q R S T U V W X Y Z

Dave Matthews Band - I Did It tab

On a standard six-string this one is in Drop-D.  Dave plays it on
a baritone, but this is transcribed for a standard acoustic or
electric.


INTRO/VERSE  [the timing is pretty tricky on this one]
e--------------8--------------------------------------------|
b--------------7--------------------------------------------|
g-------------------------5---7---9--/--5---7--xxx----------|
d------------------4-4----x---x---x-----x---x--xxx----------|
a--------5-5--------------3---5---7--/--3---5--xxx----------|
D-----------------------------------------------------------|
[ Tab from: http://www.guitaretab.com/d/dave-matthews-band/25008.html ]
BRIDGE
e-----------------------------------------------------------|
b-----------------------------------------------------------|
g---------------------------------6--6--6--6----4--4--4--4--|
d-----4--4--4--4----1--1--1--1----6--6--6--6----4--4--4--4--|
a-----4--4--4--4----1--1--1--1----4--4--4--4----2--2--2--2--|
D-----4--4--4--4----1--1--1--1------------------------------|

CHORUS [throw some muted strumming in between the changes]
e-----------------------------------------------------------|
b-----------------------------------------------------------|
g-----------------------------------------------------------|
d-----------5------4---------------------------4------------|
a--------------------------444--555--777--------------------|
D-----7--7--7------7-------777--777--777-------7------------|


Danny Drevon
ddd984@yahoo.com
Related for I Did It tab
I Did It chords by Dave Matthews Band