Dave Matthews Band - What Would You Say tab

---------------------x-------0------0-----0-----x--x-------|
---------------------x-------2/5----5-----5-----x--x-------|
-------------4/2-----x--------------------0-----x--x-------|
----------5----------x--------------------------x--x-------|
---------------------x--------------------------x--x-------|
-----3/5-------------x-----------------3--------x--x-------|

-----------------------------------------------------------|
--------2------2b3---0-------------------------------------|
-----0------------------2----------------------------------|
---------------------------2-------------------------------|
-----------------------------------------------------------|
--3--------x-----------------------------------------------|
Tap to rate this tab
 
# A B C D E F G H I J K L M N O P Q R S T U V W X Y Z