Song name
# A B C D E F G H I J K L M N O P Q R S T U V W X Y Z

Dave Matthews Band - Monkey Man tab

-----------------------------------------------------------------------------
			     Monkey Man - Dave Matthews Band
-----------------------------------------------------------------------------
Tabbed by: corpyright
Email: corpyright [a] gmail.com

Tuning: G A D G H E

Intro/Verse

e|------------------------------------------------------------------------|
B|---5/6---6---5---6---6---5---6---5/6---6---5---6---6---5---6------------|
G|---7-----7---7---7---7---7---7---7-----7---7---7---7---7---7------------|
D|---7-----7---7---7---7---7---7---7-----7---7---7---7---7---7------------|
A|------------------------------------------------------------------------|
G|------------------------------------------------------------------------|

Alternatively verse

e|------------------------------------------------------------------------|
B|---5/6---6---5---6---6---5---6---5/6---6---5---6---6---5---6------------|
G|---7-----7---7---7---7---7---7---7-----7---7---7---7---7---7------------|
D|---7-----7---7---7---7---7---7---7-----7---7---7---7---7---7------------|
A|------------------------------------------------------------------------|
G|---5-----6---6---x---x---x---x---5-----6---6---x---x---x---x------------|


Short Chorus - "It's crazy, crazy"


e|---x-----1------------------------|
B|---3-----3-----------2-----2------|
G|---------3-----1-----2-----2------|
D|---------3-----2-----2-----2------|
A|---1-----1-----2------------------|
G|---0-----------1-----x-----0------|

Chorus

e|---1-----0/1-----1-----0/1-----------------------------------------|
B|---1-----1-------1-----1----2-----3-----3-----------2-----2--------|
G|---2-----2-------2-----2----2-----------3-----1-----2-----2--------|
D|---3-----3-------3-----3----2-----------3-----2-----2-----2--------|
A|----------------------------------1-----1-----2--------------------|
G|----------------------------------0-----------1-----------0--------|


************************************

| /   slide up
| \   slide down
| h   hammer-on
| p   pull-off
| ~   vibrato
| +   harmonic
| x   Mute note
| b   Bend
| pb  Pre-bend
| br  Bend release
| pbr Pre-bend release
| brb Bend release bend

************************************
Tap to rate this tab
 
# A B C D E F G H I J K L M N O P Q R S T U V W X Y Z