Song name
# A B C D E F G H I J K L M N O P Q R S T U V W X Y Z

Dave Matthews Band - Baby Blue tab

This tab is based on the submission from CANADIA15 on DMBTabs.com, and modified 
based on the youtube cover: http://www.youtube.com/watch?v=d1ocT6WDkUM&

I think the hardest thing about this relatively easy song is the strumming 
pattern, watch video to figure it out.

***CAPO ON 8th FRET***

e|------------------------------------------------------|
B|------------------------------------------------------|
G|-----------0-------------0--------------0-------------|
D|--0h2-2-4-4-----0h2-2-4-4------0h2-2-4-4--------------|
A|-------------3-------------2------------------0-2-----|
E|-------------------------------------------2-3----0---|

* He does a light pick of B3 after each single pick of A3, A2, E23A02E0, watch the video

Here is the main modification from the original tab

"And you and me forever.... .my baby......You will...

e|----------------------------2---------------------|
B|----------------------------3----3-------------3--|
G|----------------------------2----0-------------0--|
D|----------------------------0----0-------------2--|
A|------0-2---0-2-3---------0------2------0-2---h2--|
E|--2-3-----3--------1--0-----2----3----------------|

Chords for the rest (chord names may be incorrect)

G       320030
Bm      224430
Cadd9   032030
Em7     020030
Em?     020230
D       000232
Bm?     024030 

           G           Bm         Cadd9          Em7       G
rest you head, your strength once saving ... and when you wake

    Bm       Cadd9        Em7          G            Em?       Cadd9      
you will fly away holding tight to the lesg .. of all your   angels
   
 Em7         G       Bm        D                Bm?    
goodbye my love ... into your blue blue eyes, in your, blue blue world

           
Ending: You're my baby blue."

e|---------------------|
B|---------------------|
G|---------------------|
D|---------------------|
A|--------0-2----------|
E|----2-3-----0--------|    

such a beautiful song, enjoy                             
Tap to rate this tab
 
# A B C D E F G H I J K L M N O P Q R S T U V W X Y Z