Song name
# A B C D E F G H I J K L M N O P Q R S T U V W X Y Z

Dave Matthews Band - Out Of My Hands tab

Tabbed by: cody  roe
Email:acewindoo123@yahoo.com

Tuning:reg
k so this is the piano part tabbed in guitar
e|------------------------------/--------------------------------------------|
B|------------------------------/--------------------------------------------|
G|2-2-2-2-2-2-2-2-2-2-2-2-2-2-X2/-2-2-2-2-2-2-2-2-2-2-2-2-2-2-then start over|
D|-------------0----------------/2-------3-------0---------------------------|
A|---------3-------0------------/--------------------------------------------|
E|------------------------------/--------------------------------------------|
chorus
e|---------------------------------------------------------------------------|
B|2---3---2------------------------------------------------------------------|
G|-2-2-2-2-2-2-X2------------------------------------------------------------|
D|2---0---2------------------------------------------------------------------|
A|---------------------------------------------------------------------------|
E|---------------------------------------------------------------------------|
Tap to rate this tab
 
# A B C D E F G H I J K L M N O P Q R S T U V W X Y Z