Song name
# A B C D E F G H I J K L M N O P Q R S T U V W X Y Z

Dave Matthews Band - Shotgun tab

tabbed by Nick Freeman
dave matthews plays this song on a Veillette Gryphon
so you will have to pick a CAPO on the 10th


Intro         the you would lead in to the chorus from the into
---0-----0-----------------0-|---0----------------------------------------0-|
---3-----3------3-----3----3-|---3----3-----3-3-3-3-3-3-3-3-3-3--3-3-3----3-|
---2-----0------2----2/0---2-|---0----2-----2-2-2-2-2-2-2-2-2-2--0-0-0----0-|
---2-----2------0-----4----2-|---2----0-----0-0-0-0---0---0---0--0-0-0----2-|
-0-0---3-3------0---2-2----0-|-3-3----0-------------4-0-4-0-4-0--2-2-2-2--3-|
--------------2-2------------|------2-2-------------------------------------|





Verse
-----------------0-----------------------------------------------------0-|
-0-0-0-----------3-0-0-0-----------3-0-0-0-------------0-0-0-----------0-|
-2h4-2-----------0-2h4-2-----------0-2h4-2-----------2-2h4-2-----------0-|
-------4-5-2-4-5-2-------4-5-2-4-5-0-------4-5-2-4-5-3-------4-5-2-4-5-2-|
-----------------3-----------------2-----------------3-----------------2-|
-----------------------------------3-----------------1-----------------0-|


Bridge
-----------------------------------|
-3-3-------------------------------|
-2-2-------------------------------|
-0-0-------------------------------|
------3-2-0------------------------|
------------3-2-0------------------|
Tap to rate this tab
 
# A B C D E F G H I J K L M N O P Q R S T U V W X Y Z