Song name
# A B C D E F G H I J K L M N O P Q R S T U V W X Y Z

Dave Matthews Band - 36 tab

------------------------------------------------------------------------------
			     #36 - Dave Matthews Band
-------------------------------------------------------------------------------
Tabbed by: _d_r_

Tuning: Standard

Here’s the track I used to tab: 
http://www.youtube.com/watch?v=DiqeTWcXLTk 

im almost positive its 100% right, listen to the track for timing

e|---------------------------------------|
B|---------------------------------------|
G|-----------10--9---10--9-7-------------|	and repeat... for the entire song
D|-----------10--10--10------10----------|
A|--------8---------------------8--------|
E|---------------------------------------|

If you wanna throw in something extra to mix it up I use this after the main riff:

e|---------------------------------------------------------------------------|
B|--------------------------------------------------8h10-8-------------------|
G|--------------------7h9--7--------------------10----------9----------------|
D|--------------10------------10------or--------10------------10-------------|
A|----------8--------------------------------8-------------------8-----------|
E|------6--------------------------------------------------------------------|

And the sax riff that starts at 2:07 is:

e|---------------------------------------------------------------------------|
B|----5--6--8--5~~---5--6--8/10--8~~---5--6--8--5~~----6-6-5-----------------|
G|-----------------------------------------------------------7--5~~----------|
D|---------------------------------------------------------------------------|
A|---------------------------------------------------------------------------|
E|---------------------------------------------------------------------------|

Theres alotta room for improv! have fun with it!

pease rate!!!

************************************

| /   slide up
| \   slide down
Tap to rate this tab
# A B C D E F G H I J K L M N O P Q R S T U V W X Y Z