Song name
# A B C D E F G H I J K L M N O P Q R S T U V W X Y Z

Dave Matthews Band - Little Thing tab

Dave Matthews Band - Little Thing


Intro/Story:
E|-|------------------------------------|
B|-|------------------------------------|
G|-|--------11---1111---------4---44----|
D|-|-----10------1010-------5-----55----|
A|-|---9---------9-9------6-------66----|
e|-|-8---------8-8-8----7-------7-77----|


Chorus-Strumming (Slide into from last note)
E|-|----------------------|
B|-|----------------------|
G|-|-----------7---7-6----|
D|-|-/-9---9--------------|
A|-|-/10--10---9----------|
e|-|-------8--10---7-7----|
Tap to rate this tab
 
# A B C D E F G H I J K L M N O P Q R S T U V W X Y Z