Song name
# A B C D E F G H I J K L M N O P Q R S T U V W X Y Z

Dave Matthews Band - Rhyme And Reason tab

----------------------------------------------------------------------------
			     Rhyme and Reason - Dave Matthews Band
----------------------------------------------------------------------------
Tabbed by: John Lindenmuth
Email: jlinden@clemson.edu


Tuning: Standard

I tabbed this from Listener Supported Disc 1 and I am 100% positive this is how it is 
 Tough to play at first but will come with practice!

Intro and Verse

e|------------------------------------------|
B|------------------------------------------|
G|--------3-------------------9/7-----------|
D|--3/5-0---0---5-------7-7---------10------|
A|----------------6/8-----------------------|
E|------------6-------8-----8-----6---------|

Chorus

e|----------------------|
B|----------------------|
G|------5---3-----------|
D|--5---5---3---7-------|
A|--5---3---1---7-------|
E|--3-----------5-------|


Order:

Intro/Verse- 16x
Chorus- 2x
Intro/Verse- 14x
Chorus- 4x
Intro/Verse- 16x
Chorus- 6x

then there is a slow part at the end which is:

Chorus: (hold each chord)

e|----------------------|
B|----------------------|
G|-------5~---3~--------|
D|--5~---5~---3~---7~---|   4x
A|--5~---3~---1~---7~---|
E|--3~-------------5~---|
Tap to rate this tab
# A B C D E F G H I J K L M N O P Q R S T U V W X Y Z