Song name
# A B C D E F G H I J K L M N O P Q R S T U V W X Y Z

Dave Matthews Band - Two Steps tab

Intro
e---------------------------------------------
b---------------------------------------------
g--10-10-10-10--9-9-9-9--7-7-7-7-7-7-7-7------
d---------------------------------------------
a---------------------------------------------
E--10-10-10-10--8-8-8-8--3-3-3-3-3-3-3-3------

then:
e--------------------------------------------
b--------------------------------------------
g---10--------10--10-10-------10-------------
d--------------------------------------------
a---------------------8----------------------
E---10---------6--8-----------10-------------

Verse:
e--------------------------------------------------
b--------------------------------------------------
g--10--7/9-----7--5--3-----------------------------
d-----------3-----------3--------------------------
a-----------3-----------3--------------------------
E--10--6/8--1--6--5--3--1--------------------------

Chorus:
e---------------------------------------
b---------------------------------------
g---------------------------------------
d--3---10---5----8----------------------
a--3---10---5----8----------------------
E--1---8----3----6--5-------------------

"Things we cannot change"
e---------------------------------
b---------------------------------
g---------------------------------
d--3--8--7--5--3------------------
a--3--8--7--5--3------------------
E--1--6--5--3--1------------------

Tap to rate this tab
# A B C D E F G H I J K L M N O P Q R S T U V W X Y Z