Song name
# A B C D E F G H I J K L M N O P Q R S T U V W X Y Z

Dave Matthews Band - Fool To Think tab

Help us improve GuitareTab! Take a short survey!
Verse

E:------------------------------------------------------------|
B:---------------------------3--------------------------------|
G:-----------------7---------0---------4---------6---------4--|
D:-------4------5---------4-----------------------------------|
A:----2------3---------5------------2---------4---------2-----|
E:-0-----------------------------3---------5---------3--------|
      1  4   1  2  4   3  2  1   2  1  4   2  1  4   2  1  4


Chorus

E:------------------------------------|
B:------------------------------------|
G:------------14----------------------|
D:-----11-12------12--11--14--11--12--| x4
A:------------------------------------|
E:-10---------------------------------|
   1   2  3   4   3   2    4  2   3

E:------------------------------------|
B:------------------------------------|
G:------------14----------------------|
D:-----11-12------12--11--14--11--12--| x2 then first part x2
A:-10---------------------------------|
E:------------------------------------|
   1   2  3   4   3   2    4  2   3


Jam

E:---------------------------------------------------------|
B:-----------------------------------------------/12---10--|
G:---------11------------7-------------------9---/12---10--|
D:-----9-------------------------9-------7-----------------|
A:-7-----------------9-------7-------5---------------------|
E:--------------10-----------------------------------------|
   1   2   4    3    2   1   1   4   1   2   4    1    1

E:------------------------------------------------|
B:---------------------------------------4--5--7--|
G:---------11------------7---------------4--5--7--|
D:-----9-------------------------9----------------|
A:-7-----------------9-------7-------5------------|
E:--------------10--------------------------------|

Ben "The Man" Muir
Related for Fool To Think tab