Song name
# A B C D E F G H I J K L M N O P Q R S T U V W X Y Z

Dave Matthews Band - Where Are You Going tab

Help us improve GuitareTab! Take a short survey!
Band:Dave Matthews Band
Song:Where Are You Going

Intro
E:--------------------------------------------------------------|
B:------3-----3--------3------------3-----3--------3----- <---3-|
G:-0h2--------2--2-------------0h2--------2--2----------- <---1-|
D:---------0--------0-----0-------------------------------------|
A:--------------------------------------------------------------|
E:-------------------------------------3--------3-----3---------|
   (1)  3        1     3       (1)  3  2     1  2  3  2

E:--------------------------------------------------------------|
B:------3-----3--------3------------3-----3--------3----- <---3-|
G:-0h2--------x----------------0h2--------x---------------------|
D:------------4--4------------------------2--2----------- <---4-|on4(1on2)
A:---------2--------2-----2------------0--------0-----0---------|
E:--------------------------------------------------------------|
   (1)  3  1     4  1  3  1    (1)  3        1     3


Verse
E:---------------------------------------------------|
B:----3--------3-----3------3--------3-----3-- <---3-|
G:----2--2-----------2------2--2-----------2-- <---1-|
D:-0--------0-----0----------------------------------|
A:---------------------------------------------------|
E:-----------------------3--------3-----3------------|
         1     3         2     1  2  3  2

E:----------------------------------------------------|
B:----3--------3-----3-------3--------3-----3-- <---3-|
G:----x--------------x-------x--------------x---------|
D:----4--4-----------4-------2--2-----------2-- <---4-|on4(1on2)
A:-2--------2-----2-------0---------0----0------------|
E:----------------------------------------------------|
   1     4  1  3  1             1     3


"I am no Superman..."
E:--------------------------------------------------|
B:-3-----3----3-----3----3-----3----3-----3-- <---3-|
G:-------2----------2----------0----------0-- <---1-|
D:----0---------------------------------------------| x3
A:---------------3----------2----------1------------|
E:--------------------------------------------------|
   3          3  2       3  1  3    3  1  3


End of "I am no Superman"
E:-----------------------------------------------------------------------------------|
B:-3-----3----3-----3----3-----3--------3-----3---------3-----3---------3----- <---3-|
G:-------2----------2----------0--0-----------0---0-----------0---0----------- <---1-|
D:----0------------------------------------------------------------------------------|
A:---------------3----------1--------1-----1---------1-----1---------1-----1---------|
E:-----------------------------------------------------------------------------------|
    3         3  2       3  1  3     1  3  1  3       1  3  1  3      1  3  1

E:-------------------------------------------------------------------------------------------------|
B:------3-----3---------3-----3----3-----3--------3-----3---------3-----3---------3-----3-- <---3--|
G:-0h2--------2--2------------2----------4--4-----------4---4-----------4---4-----------4-- <---1--|on2(4on4)
D:---------0---------0-----0-------------2-----2-----2--2------2-----2--2------2-----2--2-- <---1--|
A:------------------------------------3--3------------------------------------------------- <---2--|
E:-------------------------------------------------------------------------------------------------|
   (1)  3        1      3          3  2     4  1  3  1      4  1  3  1      4  1  3  1


Lead into Breakdown
E:------------------------------|
B:-3------3----3------3-- <---3-|
G:--------2-----------2-- <---1-|
D:----0-------------------------|
A:----------------3-------------|
E:------------------------------|
   3           3  2


Breakdown
When ending Breakdown, don't play slide or Zero AT END
E:------------------------------------------------|
B:----8---------3-----3---3-----3-----3-----3-----|
G:----x---------------x---------------------------|
D:----5---4-----------4---------------------------|
A:-7---------5-----5--5------2-----3-----------0--|
E:---------------------------------------3--------|
   3      2  3  1  3     4   1  4  2  4  3  4

E;--------------------------------------------|
B:----8---------3-----3---3-----3--------(0)--|
G:----x---------------x-----------------------|
D:----5---4-----------4-----------------------|
A:-7---------5-----5--5------2-----3/-----0---|
E:--------------------------------------------|
   3      2  3  1  3     4   1  4  2
Related for Where Are You Going tab