Song name
# A B C D E F G H I J K L M N O P Q R S T U V W X Y Z

Dave Matthews Band - Break Free tab

-------------------------------------------------------------------------------
                    			     Break Free - Dave Matthews Band
-------------------------------------------------------------------------------

Tabbed by: nkg1210

Tabbed from: Live Trax Volume 6

Tuning: Drop D

*Notes: Originally played on a Jerry Jones Baritone guitar.
        This tab is transcribed for a standard 6-string.

        Dave tends to play around with a lot of notes, 
        so it might be a good idea to listen to the song
        while playing it to get the timing down.
 


e|--------------------------------------------------------------------------|
B|--------------------------------------------------------------------------|
G|--------------------------------------------------------------------------|
D|--------------------------------------------------------------------------|
A|---------5--4---------4/5\4-----4------------4--2-----------2--0----------|
D|-0-000---------4-444---------7-------2-222----------2-222-----------------|



e|-----------------------------|
B|-----------------------------|
G|-----------------------------|
D|--7------6------5------4-----|
A|--7------6------5------4-----|
D|--7------6------5------4-----|
                  X               *Stop on X for 



e|--------------------------------------------------------------------------|
B|--------------------------------------------------------------------------|
G|--------------------------------------------------------------------------|
D|-------------------------------7-------------4-------------2--------------|
A|-----------0--2--4--5--4--2-0--7--5--4--2-0--4--5--4--2-0--2---5--4--2-0--|
D|--2--4--5----------------------7-------------4-------------2--------------|

                                              

e|----------------------------------|      |--------------------------------|
B|----------------------------------|      |--------------------------------|
G|----------------------------------|      |--------------------------------|
D|--------0------4------5-----------|      |--------/12------4------5-------|
A|--5-----0------4------5-----------|      |--5-----/12------4------5-------|
D|----0---0------4------5-----------|      |----0---/12------4------5-------|



e|-----------------------------------------|       
B|-----------------------------------------|        
G|-----------7--6--7-----7--6--7-----------|        
D|--------0--x--x--x--4--x--x--x---5-------|        
A|--5-----0--5--4--5--4--5--4--5---5-------|        
D|----0---0-----------4------------5-------|        

************************************
| /   slide up
| \   slide down
| h   hammer-on
| p   pull-off
| ~   vibrato
| +   harmonic
| x   Mute note
| b   Bend
| pb  Pre-bend
| br  Bend release
| pbr Pre-bend release
| brb Bend release bend
************************************
Tap to rate this tab
 
# A B C D E F G H I J K L M N O P Q R S T U V W X Y Z