Song name
# A B C D E F G H I J K L M N O P Q R S T U V W X Y Z

Dave Matthews Band - Digging A Ditch tab

SONG: Digging a Ditch (intro)
ARTIST: Dave Matthews Band
ALBUM: Busted Stuff

TABBED BY: Andrew Leonie

E|-------------------------------------------------------------------|
B|-------------------------------------------------------------------|
G|---------0----------0---4-------------0-----2-2-2------------------|
D|---------0------------0---5---0-------2-----4-4-4------------------|
A|---------2-----------------------3----3----------------------------|
E|----3--------------------------------------------------------------|

E|-------------------------------------------------------------------|
B|------------------------------4h5s3---1-1--1-(0)-------------------|
G|----------0-------------------5-s-4---2-2--2--0--------------------|
D|---0------0---0-0-0-0-------------------------0--------------------|
A|----------2----------3---------------------------------------------|
E|-----3---------3-3-3-----------------------------------------------|
                                \   /
                                 | |
         looks weird but you'll get it. or just do 5s3
                                                   5s4

too lazy for rest of song.
Tap to rate this tab
# A B C D E F G H I J K L M N O P Q R S T U V W X Y Z