Song name
# A B C D E F G H I J K L M N O P Q R S T U V W X Y Z

Dave Matthews Band - Help Myself tab

Dave Matthews Band - Help Myself
Heres another accurate tab for the DMB tabs


Intro:
E|-|-------------------------------------------|
B|-|-------------------------------------------|
G|-|------0-------0----------------------------|
D|-|-2--4-0--2--4-0-----------4-2-----4-2-5----|
A|-|-2--4----2--4---------2-3-----2-3----------|
e|-|-------------------------------------------|

"Oh hungry boy..."
E|-|-------------------------------------| 
B|-|-------------------------------------|
G|-|-------------------------------------|
D|-|------------3------4-2-----4-2--0----|
A|-|---4-5----4----2-3-----2-3-----------|
e|-|-3------5----------------------------|

"Oh colder grow the days..."
E|-|-----------------------------------|
B|-|-----------------------------------|
G|-|-----------------------------------|
D|-|-----9-------7--6------------------|
A|-|---7-------7-------7--5--7--4-0----|
e|-|-5-------5-------------------------|

"Summer's here were swimming in the river..."
E|------------------------------------------------|
B|------------------------------------------------|
G|--------------------------------------------0---|
D|---0---0--------0---0------0---0-----2--4---0---|
A|--4---4---4---4----4---4--4---4---4--2--4-------|
e|5---5---5---3----3---3--2---2---2---------------|


Have fun!!
Tap to rate this tab
 
# A B C D E F G H I J K L M N O P Q R S T U V W X Y Z