Song name
# A B C D E F G H I J K L M N O P Q R S T U V W X Y Z

Dave Matthews Band - Whiter Shade Of Pale tab

Whiter Shade Of Pale
Artist: Dave Matthews

Tuning: Standard
Capo 8 (all chords relative to capo)


Intro / Post-Chorus
|---------------------------1-----------------------3---------------------|
|---1---0---1-------1-------1---1-0-1-----------0---0---------------------|
|---0---0---2-------0-------2---2---------------0---0---0---0---0---------|
|---2---2---2-0-----0-----0-3---2-----3-2-3-3---0---0---0---2---0-----0---|
|---3---2---0---3-2-3-2-3-------0-----5-5-5-5-3-3---2---2---2---2-2-3-----|
|-------0-----------3---3---------------------------3---1---0---3---------|

Verse
|----------------0-----------0---1-------3---------------------|
|---1--------0---1---1---1---1---3---1---0-------0-------------|
|---0--------0---2---0---2---2---2---2---0---0---0---0---------|
|---2(p0h2)--2---2---2---3---2---0---3---0---0---2---0-----0---|
|---3--------2---0---3---3---0-------3---2---2---2---2-2-3-----|
|------------0-------3-------------------3---1---0---3---------|
                                     ^
Chorus ("And so it was", begins at ^)
|-------------------0-----------0---1-------3---------------------------|
|-----------1---1---1---1---1---1---3---1---0-------0-------1-------1---|
|---0-0-0---0---0---2---0---2---2---2---2---0---0---0---0---0---2---0---|
|---0-0-0---2--(0)--2---2---3---2---0---3---0---0---2---0---2---3---2---|
|---2-2-2---3---2---0---3---3---0-------3---2---2---2---2---3---3---3---|
|---3-3-3---------------3-------------------3---1---0---3-------1-------|
Tap to rate this tab
# A B C D E F G H I J K L M N O P Q R S T U V W X Y Z