Song name
# A B C D E F G H I J K L M N O P Q R S T U V W X Y Z

Dave Matthews Band - Gaucho tab

Gaucho - Dave Matthews Band - Dave's part
Intro/Verse
e|-----------------------------------------------------------------------------|
B|-----------------------------------------------------------------------------|
G|-----------------------------------------------------------------------------|
D|-------------3-3-3-------------1-1-1------------6-6-6--4-4-4--3-3-3----------|
A|-------4-4-4-------------3-3-3------------4-4-4---------------------4-4-4----|
E|--6-6-6------------4-4-4-------------2-2-2-----------------------------------|

Chorus - chords
|-6---4---||
|-6---4---||
|-8---6---||
|-8---6---||
|-6---4---||
|-6---4---||

Bridge - chords
|----7--5--2---||
|----7--5--2---||
|----8--7--3---||
|-9--9--7--4---||
|-9--9--5--4---||
|-7--7--5--2---||
Tap to rate this tab
 
# A B C D E F G H I J K L M N O P Q R S T U V W X Y Z