Song name
# A B C D E F G H I J K L M N O P Q R S T U V W X Y Z

Dave Matthews Band - Mercy tab

Mercy by Dave Matthews Band
Away From the World

Intro:
e|-3-3-3-3-|
B|-1-1-1-1-|
G|---------|
D|---------|
A|---------|
E|---------|

Verse:
e|-3-3-3-3-3-3-3-3-|       |-3-3-3-3-3-3-3-3-|
B|-1-1-1-1-1-1-1-1-|       |-1-1-1-1-1-1-1-1-|
G|-----------------|       |-----------------|
D|-----------------|       |-0-------3-------|
A|-3---0-----------|       |-----------------|
E|---------1-------| x3    |-----------------|

Chorus:
e|-3-3-3-3-3-3-3-3-|       |-3-3-3-3-3-3-3-3-|
B|-1-1-1-1-1-1-1-1-|       |-1-1-1-1-1-1-1-1-|
G|-0---------------|       |-----------------|
D|-----2---3-------|       |-0-------3-------|
A|-----------------|       |-----------------|
E|-----------------| x3    |-----------------|
Tap to rate this tab
 
# A B C D E F G H I J K L M N O P Q R S T U V W X Y Z