Song name
# A B C D E F G H I J K L M N O P Q R S T U V W X Y Z

Dave Matthews Band - Rooftop tab

This is each bit to the song, your smart enough to put it all together. Enjoy!

e|---------------------------------------------------------------------------|
B|---------------------------------------------------------------------------|
G|------9---9------------------------7---7-------7-6------------Repeat 6x----|
D|----6---7---9-------9---9--------4---5---7---------7-5---------------------|
A|-/7---------------6---7---9---/5-----------------------7-5-----------------|
E|---------------/7---------------------------/5-------------8---------------|

e|-----------------0---------------------------------------------------------|
B|-----2-----------3---------------------------------------------------------|
G|-----2-----------2----------------Repeat 4x--------------------------------|
D|-----2-----------0--0-0-0-0-0----------------------------------------------|
A|-3bp0---3bp0-0-3----0-0-0-0-0----------------------------------------------|
E|--------------------3-0-3-0-3----------------------------------------------|

e|---------------------------------------------------------------------------|
B|---------------------------------------------------------------------------|
G|-2-----4-----6-----4-----2-------------------------------------------------|
D|-3-----5-----7-----5-----3------------Repeat 2x----------------------------|
A|-3-----5-----7-----5-----3-------------------------------------------------|
E|-1-----3-----5-----3-----1-------------------------------------------------|

e|-3-------0--------------------------3-------1------------------------------|
B|-0-------1--------------------------0-------1------------------------------|
G|-0---2---0---Repeat 4x--------------0---2---2----------Play this twice-----|
D|-0---2---2---On the 4th time play---0---2---3------------------------------|
A|-2---0---3--------------------------2---0---3------------------------------|
E|-3---0---0--------------------------3---0---1------------------------------|

************************************
| /   slide up
| p   pull-off
| b   bend
************************************
Tap to rate this tab
# A B C D E F G H I J K L M N O P Q R S T U V W X Y Z