Song name
# A B C D E F G H I J K L M N O P Q R S T U V W X Y Z

Dave Matthews Band - Broken Things tab

Dave Matthews Band - Broken Things
Album: Away From The World
Tabbed by: Rehmer (Rehmeronsolos)


Tuning  : EADGBe

*/   slide up
*x   mute note   




Intro Part:

e|------------------------|
B|------------------------|
G|-------------------7----| 6x
D|-------5------7----7----| 
A|--5/7-----7--------5----|
E|------------------(5)---|


Verse: 0:13

e|---------------------------------------------------|
B|---------------------------------------------------|
G|--7--7--6--7--7--6--7--4--4--6--6--4--6--2--4--6---| 4x
D|--0--0--0--0--0--0--0--0--0--0--0--0--0--0--0--0---| 
A|--x--x--x--x--x--x--x--x--x--x--x--x--x--x--x--x---|
E|--7--7--5--7--7--5--7--3--3--5--5--3--5--2--3--5---|


Intro Part/Bridge: 0:29/0:30

e|------------------------|
B|------------------------|
G|-------------------7----| 4x
D|-------5------7----7----| 
A|--5/7-----7--------5----|
E|------------------(5)---|


Verse: 0:38

e|---------------------------------------------------|
B|---------------------------------------------------|
G|--7--7--6--7--7--6--7--4--4--6--6--4--6--2--4--6---| 4x
D|--0--0--0--0--0--0--0--0--0--0--0--0--0--0--0--0---| 
A|--x--x--x--x--x--x--x--x--x--x--x--x--x--x--x--x---|
E|--7--7--5--7--7--5--7--3--3--5--5--3--5--2--3--5---|


Chorus: 0:54

e|-(5)--(3)---0---(5)--(3)---0---|
B|--3---(3)---0----3---(3)---2---|
G|--0----0----2----0----0----2---|
D|--4----2----2----4----2----2---|
A|--5----2----4----5----2----0---|
E|-------0--------------0--------|


End of Chorus/Bridge: 1:11

e|-------------------|
B|--8--7----1----0---|
G|--7--7----0----0---| 2x
D|--5--5----2----0---|
A|--7--7----3----2---|
E|-------------------|


Intro Part/Bridge: 1:28

e|------------------------|
B|------------------------|
G|-------------------7----| 4x
D|-------5------7----7----| 
A|--5/7-----7--------5----|
E|------------------(5)---|


Verse: 1:36

e|---------------------------------------------------|
B|---------------------------------------------------|
G|--7--7--6--7--7--6--7--4--4--6--6--4--6--2--4--6---| 4x
D|--0--0--0--0--0--0--0--0--0--0--0--0--0--0--0--0---| 
A|--x--x--x--x--x--x--x--x--x--x--x--x--x--x--x--x---|
E|--7--7--5--7--7--5--7--3--3--5--5--3--5--2--3--5---|


Chorus: 1:53

e|-(5)--(3)---0---(5)--(3)---0---|
B|--3---(3)---0----3---(3)---2---|
G|--0----0----2----0----0----2---|
D|--4----2----2----4----2----2---|
A|--5----2----4----5----2----0---|
E|-------0--------------0--------|


End of Chorus/Bridge: 2:09

e|-------------------|
B|--8--7----1----0---|
G|--7--7----0----0---| 2x
D|--5--5----2----0---|
A|--7--7----3----2---|
E|-------------------|


Intro Part/Bridge: 2:26

e|------------------------|
B|------------------------|
G|-------------------7----| 4x
D|-------5------7----7----| 
A|--5/7-----7--------5----|
E|------------------(5)---|


Verse: 2:34

e|---------------------------------------------------|
B|---------------------------------------------------|
G|--7--7--6--7--7--6--7--4--4--6--6--4--6--2--4--6---| 4x
D|--0--0--0--0--0--0--0--0--0--0--0--0--0--0--0--0---| 
A|--x--x--x--x--x--x--x--x--x--x--x--x--x--x--x--x---|
E|--7--7--5--7--7--5--7--3--3--5--5--3--5--2--3--5---|


Chorus: 2:51

e|-(5)--(3)---0---(5)--(3)---0---|
B|--3---(3)---0----3---(3)---2---|
G|--0----0----2----0----0----2---| 2x
D|--4----2----2----4----2----2---|
A|--5----2----4----5----2----0---|
E|-------0--------------0--------|


Outro: 3:24

e|------------------------|
B|------------------------|
G|-------------------7----| 8x
D|-------5------7----7----| 
A|--5/7-----7--------5----|
E|------------------(5)---|
Tap to rate this tab
# A B C D E F G H I J K L M N O P Q R S T U V W X Y Z