Song name
# A B C D E F G H I J K L M N O P Q R S T U V W X Y Z

Dave Matthews Band - Snow Outside tab

The tabs themselves were found on DaveTabs.com

Standard tuning
No capo


Intro/Bridge
E:--------------------------|
B:--------------------------|
G:-2h4p2p0---0---0-----0----|
D:---------2---3---0-5---5--|
A:--------------------------|
E:--------------------------|

Verse
E:------------------------------|
B:------------------------------|
G:-2h4p2p0---0-------0-------0--|
D:---------2-------0-------0----| 3x
A:---------------3-------2------|
E:------------------------------|

E:------------------------------|
B:------------------------------|
G:-2h4p2p0---0-------0-------0--|
D:---------2-------0-------0----|
A:------------------------------|
E:---------------1-------3------|

* When 3rd fret on low E string is played you can sub in G chord.
* When 1st fret on low E string is played you can sub in F chord.
* When 2nd fret on A string is played you can sub in C chord (not for verse).
Chords shown below - Dave does this many times throughout all parts of the song.

           G~              F~              C~
E:-----  --3-    ------  ----    ------  ----
B:-----  --0-    ------  ----    ------  --1-
G:---0-  --0-    ----0-  --2-    ----0-  --0-
D:--0--OR--0-    ---0--OR--3-    ---2--OR--2-
A:-----  --2-    ------  --3-    --3---  --3-
E:-3---  --3-    --1---  --1-    ------  ----

Chorus
E:---------------------------------------------------|
B:----------------3---1------------------------------|
G:-2h4p2p0---0---0---0----2h4p2p0---0------0------0--|
D:---------2----3---2-------------2------2------0----|
A:-------------------------------------3-------------|
E:--------------------------------------------3------|
                                       C~     G~

E:--------------------------------------------------------|
B:--------------------------------------------------------|
G:-2h4p2p0---0------0------0---2h4p2p0---0------0------0--|
D:---------2------0------0-------------2------0------0----|
A:--------------------------------------------------------|
E:--------------3------1--------------------1------3------|
                G~     F~                   F~     G~
Outro
E:----------------------------------------------------------------|
B:----------------------------------------------------------------|
G:-2h4p2p0---0--------0--------0---2h4p2p0---0--------0--------0--|
D:---------2--------0--------0-------------2--------0--------0----|
A:----------------------------------------------------------------|
E:---------------3--------1----------------------1--------3-------|

{Intro}

{Verse}
You are like a secret garden
as I shuffle through this broken town
think of you and you are all around me
like the sky when the sun's going down
{Verse}
I want to tell the whole wide world
and see how love can light your soul
but you are like my secret garden
and I want to be with you alone

{Chorus}
Oh, Hold tight
cuz the road can be a crazy ride
And I know we're going to be alright
Cuz you are here with me
{Chorus}
Oh, woman is so right
And even if the oceans divide us
I will be here right by your side
For the rest of our days

{Intro*}
Here for the rest of our days

{Verse}
If you are tired I'll bear your burden
If you are dreaming I will not disturb you
Whatever your heart desires love love
I'll clear the way for you
{Verse}
Come winter I will build you a fire
From the bones of who I used to be
Before you came and washed the weary away
Before you came here for me

{Chorus}
So right every day and every night
By the fire with the snow outside
And the two of us
{Chorus}
Oh child hold tight
If it gets to be a crazy ride
I'll be here right by your side
For the rest of our days

{Intro*}
Oh, for the rest of our days

{Chorus}
So right
Holding on to this crazy ride
Hold on we'll be alright
Me and you and you and me
{Chorus}
Here you come you bring me real love
From the ground beneath to the stars above
I was growing down now I'm growing up
With you in my blood
{Chorus}
Yeah this is real love
Shining down like the stars above
Arms out and I am growing up
With you in my blood
{Chorus}
Oh you know that its alright
Feels bigger than the whole world wide
You know come the morning light
Oh I know that I am yours
{Outro}
That I am yours
That I am yours



{Intro*} - I'm not positive if this is what he is playing at the labled times, but
from what I can hear right now that's close enough. If you're performing this song
acoustically than pretty much any section would sound fine here.
Tap to rate this tab
 
# A B C D E F G H I J K L M N O P Q R S T U V W X Y Z