Song name
# A B C D E F G H I J K L M N O P Q R S T U V W X Y Z

Dave Matthews Band - Rhyme And Reason tab

----------------------------------------------------------------------
             Rhyme and Reason  Dave Matthews Band
----------------------------------------------------------------------
Tabbed by: Friday Night


Tuning: Standard

Main riff:
(The rhythm changes throughout the song, but all the notes are the same. The intro is 
also this same riff but played with palm muting.)
e|------------------------------------------------|
B|------------------------------------------------|
G|---------3---------0----------------------------|
D|---4/5-----------------------7~~------9---5-----|
A|-------5-----5/6-------6/8----------------------|
E|-----------------6---------8--------8---6-------|

Fingering:
F = first
M = middle
R = ring
P = pinky
e|------------------------------------------------|
B|------------------------------------------------|
G|---------f---------0----------------------------|
D|---r/r-----------------------f~~------p---f-----|
A|-------m-----r/r-------r/r----------------------|
E|-----------------m---------m--------m---m-------|

Chorus:
       G     C     Bb    A
e|------------------------------|
B|------------------------------|
G|-----------5-----3------------|
D|-----5-----5-----3-----7------|
A|-----5-----3-----1-----7------|
E|-----3-----3-----1-----5------|
Tap to rate this tab
# A B C D E F G H I J K L M N O P Q R S T U V W X Y Z