Song name
# A B C D E F G H I J K L M N O P Q R S T U V W X Y Z

Dave Matthews Band - Lying In The Hands Of God tab

Intro/Verse
e--------------------------------------------------|
b--------------------------------------------------|
g----7---6---4---6---------------------------------|
d----0---0---0---0---------------------------------|
a----5---4---2---4---------------------------------|
E----7---5---3---5---------------------------------|

Or/with

e------------------------------------------------|
b------------------------------------------------|
g--7--6--4--2------------------------------------|
d--9--7--5--2------------------------------------|
a------------------------------------------------|
E------------------------------------------------|

Chorus
e---------------------------------------------------|
b------8--10---5------------------------------------|
g--4---7--11---6-h7-6-------------------------------|
d--5---9--12---7-------9--7-------------------------|
a--7--10--12---0------------------------------------|
E---------10---5------------------------------------|
Tap to rate this tab
 
# A B C D E F G H I J K L M N O P Q R S T U V W X Y Z