Song name
# A B C D E F G H I J K L M N O P Q R S T U V W X Y Z

Dave Matthews Band - Jimi Thing tab

                                                           Jimi Thing
                                                      Dave Matthews Band
 
INTRO      Esus    A Asus

      Esus                             A     Asus
Lately I've been feeling low
      Esus                             A     Asus
A remedy is what I'm seeking
      Esus                             A     Asus
I take a taste of what's below
      Esus                             A     Asus
Come away to something better
      Esus                             A     Asus
What I want is what I've not got
      Esus                             A     Asus
But what I need is all around me
      Esus                             A     Asus
Reaching searching never stop
E sus      D
And I'll say.................

PRE-CHORUS
    D                                            F               
If you could keep me floating, just for a while
   D                                     C
'Til I get to the end of this tunnel...mommy
    D                                          F                
If you could keep me floating, just for a while
C                       G      B     G
 I'll get back to you

CHORUS
A          G          F#         E        A          G          F#         E 
Sometimes a Jimi Thing, slides my way and keeps me swinging
E                                       E/G# 
I'd like to show you what's inside,
A          G          F#         E        A          G          F#         E 
I shouldn't care if you do or don't like it
E                                       E/G# 
Brother chaos rule all about
A          G          F#         E        A          G          F#         E 
Sometimes I walk there, well yes, God knows, sometimes I take a bus there
E                                       E/G#       A
Shouldn't care, I shouldn't care,  bereaved as I'm feeling





                                                           Jimi Thing
                                                       Dave Matthews Band

Esus                                     A     Asus 
The day is gone,  I'm on my back
Esus                  A     Asus 
Staring up at the ceiling
Esus                           A     Asus 
I take a drink sit back relax
Esus                                    A     Asus 
Smoke my mind make me feel better for a small time
 Esus                                 A     Asus 
What I want is what I've GOT NOT
Esus                  A     Asus 
And what I need is all around me
Esus                  A     Asus 
Reaching searching never stop
Esus            D 
And I'll say...

PRE-CHORUS
    D                                            F               
If you could keep me floating, just for a while
   D                                     C     
'Til I get to the end of this tunnel...mommy
    D                                          F                
If you could keep me floating, just for a while
C                       G      B     G
 I'll get back to you

CHORUS
A          G          F#         E        A          G          F#         E 
Sometimes a Jimi Thing, slides my way and keeps me swinging
E                                       E/G# 
I'd like to show you what's inside,
A          G          F#         E        A          G          F#         E 
I shouldn't care if you do or don't like it
E                                       E/G# 
Brother chaos rule all about
A          G          F#         E        A          G          F#         E 
Sometimes I walk there, well yes, God knows, sometimes I take a bus there
E                                       E/G# 
Shouldn't care, I shouldn't care
A
bereaved as I'm feeling






                                                           Jimi Thing
                                                       Dave Matthews Band INTRO

                      Esus                              A       Asus
E-|-------------------(0)-(0)--(0)--------(0)-----------------------|
B-|-------------------(0)-(0)--(0)--------(0)-----------2-2-x---2h3-|
G-|-------------------(9)--9----9-----9-9--9------------2-2-x---2---|
D-|-------------9------9---9----9h11--9-9--9------------2-2-x---2---| 
A-|-----7-------9h11--11--11----9-----9-9--9 \ 2--------0---0---0---|
E-|-7<9---9-----0------0---0----0-----0----0------------------------|

PRE-CHORUS (strum chords)
     D       F      D      C      D     F       D     C  G  B   G
E-|--5-------5------5------0---|--5-----5-------5--------------------|
B-|--7-------6------7------1---|--7-----6-------7--------------------|
G-|--7-------5------7------0---|--7-----5-------7--------------------|
D-|- 7-------7------7------2---|--7-----7-------7-----2-----4--------|
A-|--5-------8------5------3---|--5-----8-------5-----3--2--2--------|
E-|--5--------------5----------|--5-------------5--------3--------3~-|

CHORUS
       A        G     F#      E               E    E/G# 
E-|------------------------------------|------0-----0----------|
B-|------------------------------------|------0-----0----------|
G-|------------------------------------|------1-----1----------|
D-|-----2-----------------4------------|------2-----2----------| 
A-|-----0--x-------x-----------2--2----|------2-----2----------|
E-|-------------3------2-------0--0--3-|------0-----4----------|


VIOLIN SOLO
       E                A
E-|-----0---------------0----|
B-|-----0---------------2----|
G-|-----1---------------2----|
D-|-----2---------------2----| 
A-|-----2---------------0----|
E-|-----0--------------------|

BACK TO INTRO, PRE-CHORUS, CHORUS

OUTRO, SAX SOLO
       Em             Amin
E-|-----0---------------0----|
B-|-----0---------------1----|
G-|-----x---------------2----|
D-|-----2---------------2----| 
A-|-----2---------------0----|
E-|-----0--------------------|
Tap to rate this tab
# A B C D E F G H I J K L M N O P Q R S T U V W X Y Z