Song name
# A B C D E F G H I J K L M N O P Q R S T U V W X Y Z

Dave Matthews Band - Ants Marching tab

-------------------------------------------------------------------------------
                             Ants Marching - Dave Matthews Band
                              ( carter sax solo for guitar)
-------------------------------------------------------------------------------
Tabbed by: Greg Reo
E-mail: gregdreo@earthlink.net

Tuning: Standard

e|--12---10----15--14---14h15p14--12----15p14--15p14--12--10--14---12----------|
B|-----------------------------------------------------------------------------|
G|-----------------------------------------------------------------------------|
D|-----------------------------------------------------------------------------|
A|-----------------------------------------------------------------------------|
E|-----------------------------------------------------------------------------|

e|--12--12p10--12p10-------------------------10h12--10h12--10h12---------------|
B|-----------------------10h12p10--12--12--------------------------------------|
G|-----------------------------------------------------------------------------|
D|-----------------------------------------------------------------------------|
A|-----------------------------------------------------------------------------|
E|-----------------------------------------------------------------------------|

e|--10--12--10--8--10--12--14--12-----14--12--10--12---------------------------|
B|-----------------------------------------------------------------------------|
G|-----------------------------------------------------------------------------|
D|-----------------------------------------------------------------------------|
A|-----------------------------------------------------------------------------|
E|-----------------------------------------------------------------------------|

e|--14--15--17--15--14--12--9--10----------------------------------------------|
B|-----------------------------------------------------------------------------|
G|-----------------------------------------------------------------------------|
D|-----------------------------------------------------------------------------|
A|-----------------------------------------------------------------------------|
E|-----------------------------------------------------------------------------|



************************************

| /   slide up
| \   slide down
| h   hammer-on
| p   pull-off
| ~   vibrato
| +   harmonic
| x   Mute note
| b   Bend
| pb  Pre-bend
| br  Bend release
| pbr Pre-bend release
| brb Bend release bend

************************************
Tap to rate this tab
# A B C D E F G H I J K L M N O P Q R S T U V W X Y Z