Song name
# A B C D E F G H I J K L M N O P Q R S T U V W X Y Z

Dave Matthews Band - Bartender tab

Bar Tender

I figured this out from Dave's VH1 Story Tellers performance with Tim.
Dave plays the tab below while Tim does what he does best,
making nosies you never thought could hear out a guitar and
blends them nicely into the backround.


Drop D
E---------------------------)-----------------------------|
B---------------------------)-----------------------------|
G---------------------------)-----------------------------|
D------0-----0-----0-----0--)-----0-----0-----0-----0-----|
A-3h5-----5-----5-----5-----)3h5-----5-----5-----5--------|
D---0-----------------------)--4-----------5--------------|
       ^^^^^^^^^^^^^^^^^^^
   Repeat this several times
   its very simple,
   just listen to the song.

Once or twice he does this near the end
E--------------------------------------------------------|
B--------------------------------------------------------|
G--4-4-4-4-4-4-4-----------------------------------------|
D--4-4-4-4-4-4-4--0-5--5-5-5-5-5-------------------------|
A--2-2-2-2-2-2-2--0-5--5-5-5-5-5-------------------------|
D-----------------0-5--5-5-5-5-5-------------------------|

In the Lillywhite version of this song there is a big jam,
use the D chord on the 5th fret and play around up there.

Any changes u want me to make, battlesman89@yahoo.com
Tap to rate this tab
 
# A B C D E F G H I J K L M N O P Q R S T U V W X Y Z