Song name
# A B C D E F G H I J K L M N O P Q R S T U V W X Y Z

Dave Matthews Band - So Damn Lucky tab

I wanted to create a mixture of a couple already posted tabs by Giffdud1.

e|--x--------------------------x------------------------------|
B|--x--------------------------x------------------------------|
G|--x--------------------------x------------------------------|
D|--x--------------------------x------------------------------|
A|--9h-11-11-11--9h-11-9h-11-9-9h-11-11-11--9h-11-9h-11-9-----|
E|--0--0--0--0---0--0--0--0--0-0--0--0--0---0--0--0--0--0-----|

e|--x--------------------------x------------------------------|
B|--x--------------------------x------------------------------|
G|--x--------------------------x------------------------------|
D|--9h-11-11-11--9h-11-9h-11-9-9h-11-11-11--9h-11-9h-11-9-----|
A|--0--0--0--0---0--0--0--0--0-0--0--0--0---0--0--0--0--0-----|
E|--0--0--0--0---0--0--0--0--0-0--0--0--0---0--0--0--0--0-----|

Everything's different 
My head in the clouds 
I hit this corner 
With my foot on the gas 
I started sliding, I lose it 
Everything's different just like that

e|------------------------------------------------------------|
B|-------------------------------------3---1-----2------------|
G|------7---5---3-----3---2----------------------2------------|
D|--2-------------------------2----2---4---2-----2-----2------|
A|--2---x---x---x-----x---x---2----2---5---3-----------2------|
E|------7---6---4-----4---2-----------------------------------|

Oh my God, wait and see 
What will soon become of me? 
Frozen heart
Screaming wheels 
Does that screaming come from me?

e|--x--------------------------x------------------------------|
B|--x--------------------------x------------------------------|
G|--x--------------------------x------------------------------|
D|--x--------------------------x------------------------------|
A|--9h-11-11-11--9h-11-9h-11-9-9h-11-11-11--9h-11-9h-11-9-----|
E|--0--0--0--0---0--0--0--0--0-0--0--0--0---0--0--0--0--0-----|

e|--x--------------------------x------------------------------|
B|--x--------------------------x------------------------------|
G|--x--------------------------x------------------------------|
D|--9h-11-11-11--9h-11-9h-11-9-9h-11-11-11--9h-11-9h-11-9-----|
A|--0--0--0--0---0--0--0--0--0-0--0--0--0---0--0--0--0--0-----|
E|--0--0--0--0---0--0--0--0--0-0--0--0--0---0--0--0--0--0-----|

So damn lucky, that you went on ahead 
You say, you say 
I see you later 
I heard what you said a few minutes later 
I'm sliding 
Everything's different, again


e|------------------------------------------------------------|
B|-------------------------------------3---1-----2------------|
G|------7---5---3-----3---2----------------------2------------|
D|--2-------------------------2----2---4---2-----2-----2------|
A|--2---x---x---x-----x---x---2----2---5---3-----------2------|
E|------7---6---4-----4---2-----------------------------------|


Oh my God, wait and see 
What will soon become of me? 
Frozen heart 
Screaming wheels 
Does that screaming come from me?

**Silent**
I'm dizzy from all this spinning 

e|--x--------------------------x------------------------------|
B|--x--------------------------x------------------------------|
G|--x--------------------------x------------------------------|
D|--x--------------------------x------------------------------|
A|--9h-11-11-11--9h-11-9h-11-9-9h-11-11-11--9h-11-9h-11-9-----|
E|--0--0--0--0---0--0--0--0--0-0--0--0--0---0--0--0--0--0-----|

e|--x--------------------------x------------------------------|
B|--x--------------------------x------------------------------|
G|--x--------------------------x------------------------------|
D|--9h-11-11-11--9h-11-9h-11-9-9h-11-11-11--9h-11-9h-11-9-----|
A|--0--0--0--0---0--0--0--0--0-0--0--0--0---0--0--0--0--0-----|
E|--0--0--0--0---0--0--0--0--0-0--0--0--0---0--0--0--0--0-----|

Now I'm thinking that you did all you could 
When you said my love 
Take it slowly 
Ok, is what I said


e|------------------------------------------------------------|
B|-------------------------------------3---1-----2------------|
g|------7---5---3-----3---2----------------------2------------|
d|--2-------------------------2----2---4---2-----2-----2------|
a|--2---x---x---x-----x---x---2----2---5---3-----------2------|
e|------7---6---4-----4---2-----------------------------------|

Oh my God, wait and see 
What will soon become of me? 
Frozen heart 
Screaming wheels 
Does that screaming come from me?

E                           A                                E
          Take me back, just before I was spinning 
              A                                      E 
Take me back, just before I got dizzy
              A                                                 E 
Take me back, amazing what a minute can do
           A
Just like you 
E            A
So, so, so, so, up, around, around, around 
E                         A
Amazing what a minute can do 
E                      A
Around, Around, Around 
E
Ok....
Tap to rate this tab
# A B C D E F G H I J K L M N O P Q R S T U V W X Y Z