Song name
# A B C D E F G H I J K L M N O P Q R S T U V W X Y Z

Dave Matthews Band - Seems Like Yesterday tab

Help us improve GuitareTab! Take a short survey!
(No Capo) regular tuning

intro:
---------0------0---------2----3s2--2------------------|
--3---------3------3---3---3---------------------------|
-----2---------2------2--------------------------------|
--0----------------------------------------------------|
-------------------------------------------------------|
-------------------------------------------------------|

Verse:
         i woke up this morning you weren't next to me...
---2---2---3--2---2---2---2---2---2---2---2---3--2--0---0---0---0---0--------------|
---3---3---3--3---3---3---3---3---3---3---3---3--3--3---3---3---3---3--------------|
---2---2---2--2---2---2---2---2---2---2---2---2--2--2---2---2---2---2--------------|
-----------------------------------------------------------------------------------|
-----------------------------------------------------------------------------------|
-----------------------------------------------------------------------------------|

        i cant believe its over now baby, i guess that's the way it had to be
      Reacurring memories have flown through my mind......
       i wish i could have you....baby just for one my night...

chorus:
       Cuz i tried not                    to remember my mistake...
---3--3-3--3--3--3--3--3--3--2--2-3-2-0--0--0--0--0--0-|
---3--3-3--3--3--3--3--3--3--3--3-3-3-3--3--3--3--3--3-|
---0--0-0--0--0--0--0--0--0--2--2-2-2-2--2--2--2--2--2-|
---0--0-0--0--0--0--0--0--0--0--0-0-0-0--0--0--0--0--0-|
---2--2-2--2--2--2--2--2--2--0--0-0-0-0--0--0--0--0--0-|
---3--3-3--3--3--3--3--3--3--0--0-0-0-0--0--0--0--0--0-|

  And i tried to escape all of my shame
  But it, it seems like yesterday i was kissin your pretty face

Pro-Chorus
      It seems like yesterday.....it seems like yesterdayyyy
---3--3-3--3--3--3--3--3--0--0--3-3-3-0-------------------|
---3--3-3--3--3--3--3--3--2--2--2-2-2-2-------------------|
---0--0-0--0--0--0--0--0--2--2--2-2-2-2-------------------|
---0--0-0--0--0--0--0--0--2--2--2-2-2-2-------------------|
---2--2-2--2--2--2--2--2--0--0--0-0-0-0-------------------|
---3--3-3--3--3--3--3--3--0--0--0-0-0-0-------------------|

Verse:
Life will keep goin with sweet memories
as long as you live life happy that's gonna be alright with me
this bed is empty, without you in the sheets at night
tellin me sweet dreams, put me in a sweet devine

Chorus:

Pro-Chorus

Verse:
I remember a young girl starin right back at me. she was so....
drop dead pretty she made my (stop playing) heart stop and the whole world freeze...

Bridge:
---0--0--0--0--0--0--0--0--0--0--0--0--0--0--0--0--0-------------|
---2--2--2--2--2--2--2--2--2--2--2--2--2--2--2--2--2-------------|
---2--2--2--2--2--2--2--2--2--2--2--2--2--2--2--2--2-------------|
---2--2--2--2--2--2--2--2--2--2--2--2--2--2--2--2--2-------------|
---0--0--0--0--0--0--0--0--0--0--0--0--0--0--0--0--0-------------|
-----------------------------------------------------------------|

---2--2-2-2-2--0--0--0--0--0--0--0--0--0--0--0--0--0-----|
---3--3-3-3-3--2--2--2--2--2--2--0--0--0--0--0--0--0-----|
---2--2-2-2-2--2--2--2--2--2--2--1--1--1-1-1-1--1--1-----|
---0--0-0-0-0--2--2--2--2--2--2--2--2--2-2-2-2--2--2-----|
---0--0-0-0-0--0--0--0--0--0--0--2--2--2-2-2-2--2--2-----|
 ------------------0--0--0--0--0--0--0--0--0-0-0-0--0--0-|

(pick) Chorus:

Chorus:

Pro-Chorus (twice)

end on...

When you walked away..(playing the verse)
Related for Seems Like Yesterday tab