Song name
# A B C D E F G H I J K L M N O P Q R S T U V W X Y Z

Dave Matthews Band - Out Of My Hands tab

Dave Matthews and Tim Reynolds - Out of My Hands
Live at Radio City Music Hall

tabbed by Airdog625

INTRO - Tim Reynolds

E|-----5/7~~~-----3h5-2h3~~~----|---------2--3--5~--3p2h3~~~----|
B|--5----------3----------------|---0--3------------------------|
G|------------------------------|-------------------------------|
D|------------------------------|-------------------------------|
A|------------------------------|-------------------------------|
E|------------------------------|-------------------------------|


E|--10/12--8~~~-----5/7--3~~~---|-------------------------------|
B|------------------------------|---------------------7--8------|
G|------------------------------|------------------9------------|
D|------------------------------|---------------9---------------|
A|------------------------------|-----7--9--10------------------|
E|------------------------------|--7----------------------------|


E|--7h8p7-----------------------|-----------------------5/7~~~--|
B|---------8~~~-----------------|------------------5p3----------|
G|--------------4--5--7---------|-------------------------------|
D|-----------------------5------|--5--7--8--5~~~----------------|
A|------------------------------|-------------------------------|
E|------------------------------|-------------------------------|


E|-----10/12~~~~~~--------------|-------------------------------|
B|--8---------------------------|-------------------------------|
G|------------------------------|-------------------------------|
D|------------------------------|-------------------------------|
A|------------------------------|-------------------------------|
E|------------------------------|-------------------------------|


Main Verse (album version)

Part A
E|------------------------------|-------------------------------|
B|------------------------------|-------------------------------|
G|-----2--2-------2--2----------|-----2--2-------2--2-----------|
D|------------------------------|-------------0-----------------|
A|--0----------0----------------|--3----------------------------|
E|------------------------------|-------------------------------|

Part B
E|----------------------------------------------------------------|
B|----------------------------------------------------------------|
G|---2---2---2---2---2---2---2---2---2---2---2---2---2---2---2---2|
D|-2---2---2---2---3---3---3---3---0---0---0---0------------------|
A|-------------------------------------------------0---0---0---0--|
E|----------------------------------------------------------------|

Part C
E|--------------------------|-------------------------------------|
B|--2------------3----------|---2---------------------------------|
G|--2---2--------2---2------|---2---2-----------------------------|
D|--------------------------|-------------------------------------|
A|--0---0---0----0---0---0--|---0---0---0-------------------------|
E|--------------------------|-------------------------------------|

That's pretty much it, I'm still workin on the Tim parts for the rest of the song, so I 
included the verses from the album version. Please sent any corrections to 
Thanks!
Tap to rate this tab
# A B C D E F G H I J K L M N O P Q R S T U V W X Y Z