Guitaretab - guitar tabs
Song name
# A B C D E F G H I J K L M N O P Q R S T U V W X Y Z

Dave Matthews Band - Smooth Rider tab

-------------------------------------------------------------------------------
			     Smooth Rider - Dave Matthews Band
-------------------------------------------------------------------------------
Tabbed by:Espen Rian Skog
Email:Espenskog@gmail.com

Tuning:EADGBE (Standard)

Intro/verse:

e|---------------------------------------------------------------------------|
B|---------------------------------------------------------------------------|
G|---------------------------------------------------------------------------|
D|-----------2--2/4------2-2-----------2-2/4------2-4------------------------|
A|------4-4----------4------------4-4----------4-----------------------------|
E|--x--------------------------x---------------------------------------------|

[ Tab from: http://www.guitaretab.com/d/dave-matthews-band/60077.html ]
e|---------------------------------------------------------------------------|
B|---------------------------------------------------------------------------|
G|---------------------------------------------------------------------------|
D|-----------2--2/4-----2-0--2--2-0------------------------------------------|
A|-----4--4----------4-------2-------2-0-------------------------------------|
E|--x------------------------0-----------------------------------------------|

The "X" can be replaced with a palmmuted "2" if you're playing alone.
Also,the slides can be replaced with hammer-on's.

Chorus:

e|---------------------------------------------------------------------------|
B|---------------------------------------------------------------------------|
G|-2-------------------------------------------------------------------------|
D|-2---5---------------------------------------------------------------------|
A|-0---5---------------------------------------------------------------------|
E|-----3---------------------------------------------------------------------|

Great song, DMB still rules.
Questions/corrections ? Mail me.. Good luck!

| /  slide up
| \  slide down
| h  hammer-on
| p  pull-off
| ~  vibrato
| +  harmonic
| x  Mute note
===============================================================================
Related for Smooth Rider tab
Advertisement will be closed in 10 seconds