Guitaretab - guitar tabs
Song name
# A B C D E F G H I J K L M N O P Q R S T U V W X Y Z

Dave Matthews Band - Trouble With You tab

This track is a studio recording that didn't make the cut for the new album.
It appears on the limited edition CD companion to Stan Up. I think it should
have been on the album.  It's a great DMB song. Here is the tab for the whole
song. Enjoy


Drop D 

This riff occurs throughout the song except for the little bridge in the middle.
Listen the song for the rhythm and the timing of the chord changes 
[ Tab from: http://www.guitaretab.com/d/dave-matthews-band/60110.html ]
E|-|---------------------------------------------------------------|
B|-|---------------------------------------------------------------|
G|-|--------------8/9--9----2-2----6-6---1-1-----------------------|
D|-|---------------------------------------------------------------|
A|-|---------------------------------------------------------------|
D|-|-----(10-10)-10/11-11---4-4----7-7---2-2-----------------------|
             
(The little bridge in the middle)
E|-|---------------------------------------------------------------|
B|-|---------------------------------------------------------------|
G|-|------8/9--9----2-2-------1-1----------------------------------|
D|-|---------------------2-2-------4-4-----------------------------|
A|-|---------------------------------------------------------------|
D|-|-----10/11-11--4-4--2-2--2-2-0-0-----------------------------|
Related for Trouble With You tab