Song name
# A B C D E F G H I J K L M N O P Q R S T U V W X Y Z

Dave Matthews Band - Kit Kat Jam tab

KiT KaT JaM

E-------------------------------------------------------------|
B-------------------------------------------------------------|
G-------------------------------------------------------------|
D---------3-1-0---------3---0-1-3---------3-1-0---------3-5-5-|
A-------------------------3-----------------------------------|
E-1-1-1-1-------1-1-1-1-----------1-1-1-1-------1-1-1-1---3-3-|

E-------------------------------|
B-------------------------------|
G-8-8-7---5-5-4-----------------|
D-----------------6-6-5--3-3-5--|
A-6-6-5---3-3-2-----------------|
E-----------------4-4-3--1-1-3--|

Submitted by Preston L.

>>>DMB<<<
Tap to rate this tab
# A B C D E F G H I J K L M N O P Q R S T U V W X Y Z