Song name
# A B C D E F G H I J K L M N O P Q R S T U V W X Y Z

Dave Matthews Band - I Wont Give Away tab

When I was a kid...
E------1------------|
B--1----------------|
G---------------2---|
D--2-------3----3---|
A--3---2---1----3---|
E------3--------1---|

(Transition)
E---2-----|
B---------|
G------0--|
D------2--|
A---2--2--|
E---3--0--|

I won't give it away...
E--------------------------|
B---1----1----3----1---1---|
G---2----2----2----2-------|
D---2----2---------3---2---|
A----------------------3---|
E--------3----2------------|

I still want you...
E---1----------------|
B---3-----------1----|
G---2-------2--------|
D-------3---3---2----|
A-------1---3---3----|
E-----------1--------|

Submitted by P-Stone

dmb!!!
Tap to rate this tab
# A B C D E F G H I J K L M N O P Q R S T U V W X Y Z