Song name
# A B C D E F G H I J K L M N O P Q R S T U V W X Y Z

Dave Matthews Band - Idea Of You tab

Capo 10th Fret .. Dave plays this on a 12 string .. so to make it sound like that I 
it to what the tuning would be like on standard by placing a capo on the 10th.

Intro/Verse

e---------------------------------------------------------------------|
b-------------------3-------------------------------------------------|
g------------------(6)-----7------------------------------------------|
d-------------------4------5------------------------------------------|
a-------------------5------3------------------------------------------|
E--0--2--3--5--7------------------------------------------------------|

Chorus

e-------------------------------------------------------------------------|
b----------------------------------------------------------------------3--|
g-----4--2--0--0-----4--2--0--0------4--2--0--0------4--2--0--0-------(6)-|
d---------------------------------------------------------------end-on-4--|
a---3---------------------------------------------2--------------------5--|
E-----------------3--------------2----------------------------------------|

Bridge

e---------------------------------|
b-----3---------------------------|
g----(6)--------------------------|
d-----4-----strum the whole time--|
a-----5---------------------------|
E---------------------------------|

Breakdown (end of song)

e-------------------------------------------------|
b--------------------------------------------3----|
g------0------0------0-----0-----0----------(6)---|
d--------0------0------0-----0----0---end-on-4----|
a----3------2------0-------------------------5----|
E------------------------3-----2------------------|

not hard to play .. this song is going to be huge this summer .. enjoy playin it
Tap to rate this tab
 
# A B C D E F G H I J K L M N O P Q R S T U V W X Y Z