Song name
# A B C D E F G H I J K L M N O P Q R S T U V W X Y Z

Dave Matthews Band - Cornbread tab

Main Riff (courtesy of katnap)
      1   1   4   1   1   4   4   4   1   1   4   1   1   4   1   1
E:-----------------------------------------------------------------------|
B:-----------------------------------------------------------------------|
G:------0---0---0---0---0---0---0---0---0---0---0---0---0---0---0---0----|
D:----5---5---7---3---3---5---5---5---5---5---7---3---3---5--------------|
A:------------------------------------------------------------3---2------|
E:-----------------------------------------------------------------------|

    (basic pattern)
E:------3-3------3-3----|
B:------3-3--3-3-3-3----|
G:--0-0-0-0--0-0-0-0----|
D:--0-0-0-0--2-2--------|
A:--2-2------3-3--------|
E:--3-3-----------------|

                                     "it's all inside my head..."
Chorus                   (fingerpicked by Tim, strummed by Dave)
E:-------------            E:---------------|
B:-------------            B:--4--3--2--1---|
G:--0--0--0--0- x 2    G:--0--0--0--0-- x 2-|
D:--0--0--0--0-            D:--5--4--3--2---|
A:--3--3--3--2-            A:--6--5--4--3---|
E:--5--1--3--3-            E:---------------|
Tap to rate this tab
 
# A B C D E F G H I J K L M N O P Q R S T U V W X Y Z