Song name
# A B C D E F G H I J K L M N O P Q R S T U V W X Y Z

Dave Matthews Band - Eh Hee tab

<><><><><><><><><><><><><><><><><><><><><><><><><><>
     E H   H E E  /  D A V E    M A T T H E W S    A N D     T I M   R E Y N O L D S
<><><><><><><><><><><><><><><><><><><><><><><><><><>

Tabbed by:Hunter

Tuning:Standard(EADGBe)

This is the version of "Eh Hee" played by Dave & Tim at Radio City (4-22-07) :

Intro:
---------------|
---------------|
---------------|
-3--3-3-3-3-3--|
-3--3-3-3-3-3--|
-1--1-1-1-1-x--|

Intro Fill (Tim)
~~~
------|
------|
------| x 14
-3----|
------|
------|

(Tim)
-4-1---------------------|
-4-1----3----------------|
-----3--3-1--------------|
------------3---1-3--1-3-| x 3
-------------------------|
-------------------------|

Verse Fill (Tim)
----------------------------|
----------------------------|
-3--------------------------|
---3-1-3---1-3---1-3---1-3--|
----------------------------|
----------------------------|

Chorus
------------|
------------|
-3---7--5---|
-x---x--x---|
-1---5--3---|
-3---6--5---|

Chorus fills (Tim)
-----------------------|  |-------------8-----| |-------------------|  |-6-9-6-|
-x-x-11-11--x-x-10-10--|  |-11-11-11-10---10--| |-11-11-10-10-10-10-|  |-6-9-6-|
-x-x-10-10--x-x-9--9---|  |-x--x--x--x----x---| |-10-10-9--9--9--9--|  |-------|
-x-x-8--8---x-x-7--7---|  |-8--8--8--7----7---| |-------------------|  |-------|
-----------------------|  |-------------------| |-------------------|  |-------|
-----------------------|  |-------------------| |-------------------|  |-------|

--------------       |-------------|
--------------       |-4--4--4--4--|
-10--8--7--6-- x 4   |-5--5--5--5--|
-x---x--x--x--       |-------------|
-8---6--5--4--       |-------------|
--------------       |-------------|

Outro (Tim)
     ~~~            ~~~
------------------------|
------------------------|
------------------------|
------------------------|
-6-6-8-8---5-x-8--8-4---|
------------------------|
Tap to rate this tab
 
# A B C D E F G H I J K L M N O P Q R S T U V W X Y Z