Song name
# A B C D E F G H I J K L M N O P Q R S T U V W X Y Z

Dave Matthews Band - Breakfree tab

Intro

b------------------------------------|
gb-----------------------------------|
d------------------------------------|
a----5-4---4-4h5p4-0-4-----4-2---2-0-|
e------------------------------------|
B--3-----7--------------5------5-----|

Chours "id drink your poison if you fill the cup.."

b-----------------------------------|
gb----------------------------------|
d----7--7--5--5---------------------|
a----7--7--5--5---------------------|
e----5--x--x--x---------------------|
B-------5--3--3---------------------|

Fill after chours to verse

b-----------------------------------|
gb----------------------------------|
d-----------------------------------|
a-----------2-5---------------------|
e-------2-5-------------------------|
B---3-5-----------------------------|

Bride "but the way she loves me"

b-----------------------------------|
gb----------------------------------|
d-----------------------------------|
a---5-4-2-0--5----------------------|
e------------5----------------------|
B------------3----------------------|

This song is all about feeling, if you know
the style of Dave you will have no problem
with the rhythm of this song.
Tap to rate this tab
 
# A B C D E F G H I J K L M N O P Q R S T U V W X Y Z