Song name
# A B C D E F G H I J K L M N O P Q R S T U V W X Y Z

Dave Mcpherson - Glass White Flag tab

Hey hey is the tab for Dave Mcpherson's (of InMe) Glass White Flag which is part 
of his solo project.

Pritty sure this is nealy perfect, I havnt done the strumming pattern just listed 
the chords, just play them in that order, cant go wrong, but listen to the track.

any questions just comment
and dont forget to rate!!

Dave's Myspace Page..
http://www.myspace.com/davemcphersonsolo


Glass White Flag

Intro

|----------------------3s5s3-----------0h2-----2h3-----3s5----|
|------1p0-------------------3-----3-------3-------3-------3--|
|----------0---------------------2---2-------2-------2-------0|
|--2---------2-----0------------------------------------------|  X2
|3---3---------3-----2----------------------------------------|
|----------------3--------------------------------------------|

Verse

|3---3--|-1-|
|3---3--|-1-|
|0---0--|-2-|
|0---2--|-3-|
|x---3--|-3-|
|3------|-1-|
 ^
2h3 > 2nd
5s3 > 3rd
F chord > 4th

Pre Chorus

|------0-------0-------0--------|
|--1-------1-------1-------1---0|
|------------2---2---2---2---2--|
|2---2---2----------------------|
|-------------------------------|
|-------------------------------|

Chorus

|--------3-------------0h2p0--------------------------------------|
|------3---3-----------------3-----------1p0-----------1p0--------|
|--0---------0-----2-----------2-------------0-------------0------|
|----------------0---0---------------2---------2-----2-------2----|
|----------------------------------3---3-----------3-----------3-0|
|3----------------------------------------------------------------|

|-------3s5s3----------0h2p0----------------------------------------|
|-------------3--------------3-----------1p0-----------3p1p0--------|
|----0-------------2-----------2-------------0---------------0------|
|----------------0---0---------------2---------2-----2---------2----|
|----------------------------------3---3-----------3-------------3-0|
|2h3----------------------------------------------------------------|

|--------3------------0h2p0------0---1|
|----------3------3---------3----0---1|
|----0-------0--2---2---------2--0---2|
|--------------------------------2---3|
|--------------------------------2---3|
|5s3-----------------------------0---1|
                                Em   F

|----------------------------------------------------------------|
|------1p0-----------1p0----------------3p0-----------3p0--------|
|----------0-------------0------------------0-------------0------|
|--2---------2-----2-------2--------4---------2-----2-------2----|
|3---3---------3-------------3----5---5---------3-------------3--|
|----------------------------------------------------------------|

|-----------------------------------------0-----------x---x------|
|------1p0-----------1p0--------------------3---------x---x------|
|----------0-------------0--------------0-----0-------x---x------|
|--2---------2-----2-------2--------4-----------4-----x---x------|
|3---3---------3-------------3----5---5---------------x---x------|
|-----------------------------------------------------x---x------|

####REPEAT FROM VERSE####

Bridge

|0---3---2--3--2-|-0---3---2-0-2-|-0---3---7---7-|-0---3---2--3--5--3--2|
|1---3---3--3--3-|-1---3---3-0-3-|-1---3---7---8-|-1---3---3--3--3--3--3|
|0---0---2--2--2-|-0---0---2-0-2-|-0---0---8---9-|-0---0---2--2--0--2--2|
|2---0---0--0--0-|-2---0---0-2-0-|-2---0---9---9-|-2---0---0--0-----0--0|
|3---x-----------|-3---x-----2---|-3---x---9---7-|-3---x----------------|
|----3-----------|-----3-----0---|-----3---7-----|-----3----------------|

####CHORUS####

Chorus 2

|3--2---0--0--0--0-|-3--2---0---0-|-3--2---0--1-|-0--0--0--0-|0--0--0--0-|
|3--3---1--0--1--0-|-3--3---1---0-|-3--3---0--1-|-1--0--1--0-|3--0--3--0-|
|0--2---0--0--0--0-|-0--2---0---0-|-0--2---0--2-|-0--0--0--0-|0--0--0--0-|
|0--0---2--2--2--2-|-0--0---2---2-|-0--0---2--3-|-2--2--2--2-|4--4--4--4-|
|x------3--3--3--3-|-x------3---3-|-x------2--3-|-3--3--3--3-|5--5--5--5-|
|3-----------------|-3------------|-3------0--1-|------------|-----------|
                                                      ^                      ^  
                                                      ------------------------

Interlude

|--------0---------------0----|
|----------3---------3-----3--|
|--0---0-----0-----0---------0|  X4
|4---4---------4--------------|
|5----------------------------|
|-----------------------------|

Outro


|----------------------3s5s3-----------0h2-----2h3-----3s5----|
|------1p0-------------------3-----3-------3-------3-------3--|
|----------0---------------------2---2-------2-------2-------0|
|--2---------2-----0------------------------------------------|  
|3---3---------3-----2----------------------------------------|
|----------------3--------------------------------------------|

|----------------------3-3s5--5s7|
|------1p0-----------------------|
|----------0---------------------|
|--2---------2-----0-------------|  
|3---3---------3-----2-----------|
|----------------3---------------|

|------0h2-----2h3-----3s5-----5s7-----8----10-----12------14-----|
|--3-------3-------3-------3-------5-----7-----8------10------12--|
|2---2-------2-------2-------0-------0-----0-----0-------0-------0|
|-----------------------------------------------------------------|
|-----------------------------------------------------------------|
|-----------------------------------------------------------------|

|15------15---------15------15------15------15----------------3---|
|---14------14p13------13------13------13------12-----------------|
|------0----------0-------0-------0-------0-------0---------------|
|-----------------------------------------------------0-----------|
|---------------------------------------------------------0-------|
|-------------------------------------------------------------3---|


Tap to rate this tab
# A B C D E F G H I J K L M N O P Q R S T U V W X Y Z