Guitaretab - guitar tabs
Song name
# A B C D E F G H I J K L M N O P Q R S T U V W X Y Z

Dave Mcpherson - Wicked Man tab

Wicked Man
Dave Mcpherson

From the ep B.S.W.U.E
mostly just listed the chords, just play them in that order, think this is nealy perfect
Any questions just comment
dont forget to rate!!


Chords Used..


|0---3---2-----2---0-----|9----7----5|
|2---3---2-----3---3-----|10---8----6|
|2---0---2-----2---2-----|11---9----7|
|2---0---4-----0---0-----|11---9----7|
|0---2---4---------------|9----7----5|
|----3---2---------------|-----------|
A   G   F#m   D   Dsus2   F#m  Em   Dm

VERSE 1

A      G                   F#m               D Dsus2
   I cannot cope unless I'm guided by hope
A          G                      F#m               D Dsus2
   And this girl, you see, she's a mystery to me
A       G                               F#m                    D (Dsus2)
   I wish that I could show you all the things that I've done

INTERLUDE

I'm hiding all my regrets away from you
I'm never confiding but finding a way to drink my way through
Silly Brentwood boy
[ Tab from: http://www.guitaretab.com/d/dave-mcpherson/191781.html ]
|------2------4------5-------|-------4------5------7-------|
|--3------3------3------3---3|---5------5------5------5---5|
|2---2------2------2------2--|-4---4------4------4------4--|
|----------------------------|-----------------------------|
|----------------------------|-----------------------------|
|----------------------------|-----------------------------|

|------4-----------5--5-5-5|
|--5------5---5/6--6--6-6-6|
|4---4------4--/5--5--5-5-5|
|--------------------------|
|--------------------------|
|--------------------------|


PRE CHORUS
All barre chords, 5th string root

F#m               Em      Dm
      There's no wick in the candle
                            Em
I can't handle this fight on my own
F#m                      Em      Dm
      Cobbled street, I can't find my feet in this burning heat


CHORUS

The last chord listed is played at the end of the chorus


|0---0---0---0---|-5-|
|0---0---0---0---|-5-|
|6---4---2---4---|-7-|
|6---4---2---4---|-7-|
|4---2---0---2---|-5-|
|----------------|---|

VERSE 2
INTERLUDE
PRE CHORUS

The 2nd chorus is a bit different, it miss's out the B chord a few times, listen to the 
to see, Dave just jumps for the C# to the A.

LAST CHORUS
Ill just list the chords here in order, gets a bit different.

|0---0---0-|0---0---0---0-|0---0---0---0-|0---7---2-----|
|0---0---0-|0---0---0---0-|0---0---0---0-|0---7---3-----|
|1---4---2-|1---4---2---4-|1---4---6---2-|1---8---2---1-|
|2---4---2-|2---4---2---4-|2---4---6---2-|2---9---0---2-|
|2---2---0-|2---2---0---2-|2---2---4---0-|2---9-------2-|
|0---------|0-------------|0-------------|0---7-------0-|


End on the last E
Related for Wicked Man tab
Advertisement will be closed in 10 seconds