Song name
# A B C D E F G H I J K L M N O P Q R S T U V W X Y Z

Dave Melillo - Wait For It tab

-------------------------------------------------------------------------------
			     WAIT FOR IT - Dave Melillo

-------------------------------------------------------------------------------
Tabbed by: Linden Hillenbrand
Email: lhillenb18@optonline.net

Tuning: Standard

1st tab but it is near perfect! Great song!


Verse

e|--3-----3-----0----0-------------------------------------------------------|
B|--3-----3-----3----3-------------------------------------------------------|
G|--0-----0-----2----0-------------------------------------------------------|
D|--0-----0-----0----2-------------------------------------------------------|
A|--0-----3-----2----3-------------------------------------------------------|
E|--3-----0-----0----0-------------------------------------------------------|


"you've got potential..."

e|---3----3----3-------------------------------------------------------------|
B|---3----3----3-------------------------------------------------------------|
G|---0----0----0-------------------------------------------------------------|
D|---0----0----0-------------------------------------------------------------|
A|---0----0----2-------------------------------------------------------------|
E|---2----3----3-------------------------------------------------------------|   *    *  
 *


Chorus

e|---3----3----3----3----------3----3----------------------------------------|
B|---3----3----3----3----------3----3----------------------------------------|
G|---0----0----0----0----------0----2----------------------------------------|
D|---2----2----0----0----------2----x----------------------------------------|
A|---3----2----2----0----------3----x----------------------------------------|
E|---0----0----3----2----------0----x----------------------------------------|           
                      *

Verse

Chorus

Bridge
When screaming use 330230 to 330220 thats it!

Enjoy!


| /  slide up
| \  slide down
| h  hammer-on
| p  pull-off
| ~  vibrato
| +  harmonic
| x  Mute note
===============================================================================
Tap to rate this tab
# A B C D E F G H I J K L M N O P Q R S T U V W X Y Z