Song name
# A B C D E F G H I J K L M N O P Q R S T U V W X Y Z

Dave Melillo - Sams Song tab

Verse
figure out the strumming
D#--0-0-x-0-0-x------0-0-x-0-0-x------0-0-x-0-0-x-x--0-x-x--0-x------|
A#--0-0-x-0-0-x------0-0-x-0-0-x------0-0-x-0-0-x-x--0-x-12-0-x------|
F#--6-6-x-6-6-x--x4--9-9-x-9-9-x--x2--9-9-x-9-9-x-11-9-x-9--9-x------|repeat
C#--6-6-x-6-6-x------9-9-x-9-9-x------9-9-x-9-9-x-9--9-x-9--9-x------|  x4
G#--4-4-x-4-4-x------7-7-x-7-7-x------0-0-x-0-0-x-0--0-x-0--0-x------|
D#--x-x-x-x-x-x------x-x-x-x-x-x------0-0-x-0-0-x-0--0-x-0--0-x------|

end 4th time strumming this up n down       --0-0-0-0-0-0-0-0------------|
                                            --0-0-0-0-0-0-0-0------------|
                                            --9-9-9-9-9-9-9-9------------|
                                            --9-9-9-9-9-9-9-9------------|
                                            --0-0-0-0-0-0-0-0------------|
                                            --0-0-0-0-0-0-0-0------------|
Chorrus

--x-x---0-0-0----0-0-0-0-0-0----0-0-0-0-0-0-0-0-0-0-0-0------|
--x-x---0-0-0----0-0-0-0-0-0----0-0-0-0-0-0-0-0-0-0-0-0------|
--x-x-2-2-2-2----4-4-4-4-4-4----6-6-6-6-6-6-6-6-6-6-6-6------|
--x-x-2-2-2-2----4-4-4-4-4-4----6-6-6-6-6-6-6-6-6-6-6-6------|
--x-x-0-0-0-0----2-2-2-2-2-2----4-4-4-4-4-4-4-4-4-4-4-4------|
--x-x-0-0-0-0----x-x-x-x-x-x----x-x-x-x-x-x-x-x-x-x-x-x------|

--0-0-0-0----0-0-0-0-0-0---0-0-0-0-0-0-0-0-0-0-0-0-----------|
--0-0-0-0----0-0-0-0-0-0---0-0-0-0-0-0-0-0-0-0-0-0-----------|
--2-2-2-2----4-4-4-4-4-4---6-6-6-6-6-6-6-6-6-6-6-6-----------|
--2-2-2-2----4-4-4-4-4-4---6-6-6-6-6-6-6-6-6-6-6-6-----------|
--0-0-0-0----2-2-2-2-2-2---4-4-4-4-4-4-4-4-4-4-4-4-----------|
--0-0-0-0----x-x-x-x-x-x---x-x-x-x-x-x-x-x-x-x-x-x-----------|

--0-0-0-0----0-0-0-0-0-0---0-0-x-0-0-0 x-0-0-0-x-0-0-0-x-----|
--0-0-0-0----0-0-0-0-0-0---0-0-x-0-0-0-x-0-0-0-x-0-0-0-x-----|
--2-2-2-2----4-4-4-4-4-4---6-6-x-6-6-6-x-4-4-4-x-4-4-4-x-----|
--2-2-2-2----4-4-4-4-4-4---6-6-x-6-6-6-x-4-4-4-x-4-4-4-x-----|
--0-0-0-0----2-2-2-2-2-2---4-4-x-4-4-4-x-2-2-2-x-2-2-2-x-----|
--0-0-0-0----x-x-x-x-x-x---x-x-x-x-x-x-x-x-x-x-x-x-x-x-x-----|

--0-0-0-0----0-0-0-0-0-0---0-0-0-0-0-0-0-0-0-0-0-0-------|
--0-0-0-0----0-0-0-0-0-0---0-0-0-0-0-0-0-0-0-0-0-0-------|
--2-2-2-2----4-4-4-4-4-4---6-6-6-6-6-6-6-6-6-6-6-6-------|
--2-2-2-2----4-4-4-4-4-4---6-6-6-6-6-6-6-6-6-6-6-6-------|
--0-0-0-0----2-2-2-2-2-2---4-4-4-4-4-4-4-4-4-4-4-4-------|
--0-0-0-0----x-x-x-x-x-x---x-x-x-x-x-x-x-x-x-x-x-x-------|

--0-0-0-0----0-0-0-0-0-0---0-0-0-0-0-0-0-0-0-0-0-0--------|
--0-0-0-0----0-0-0-0-0-0---0-0-0-0-0-0-0-0-0-0-0-0--------|
--2-2-2-2----4-4-4-4-4-4---9-9-9-9-9-9-9-9-9-9-9-9--------|
--2-2-2-2----4-4-4-4-4-4---9-9-9-9-9-9-9-9-9-9-9-9--------|
--0-0-0-0----2-2-2-2-2-2---7-7-7-7-7-7-7-7-7-7-7-7--------|
--0-0-0-0----x-x-x-x-x-x---0-0-0-0-0-0-0-0-0-0-0-0--------|

Verse 2

--0-0-x-0-0-x-0-0-x-0-0-x--     -0-0-x-0-0-x--             -0--x-0-x-0-x-0-|
--9-9-x-0-0-x-0-0-x-0-0-x--     -0-0-x-0-0-x--             -0--x-0-x-0-x-0-|
--9-9-x-9-9-x-8-8-x-9-9-x-- x2  -8-8-x-9-9-x-- x3 and then -11-x-9-x-9-x-9-|
--9-9-x-9-9-x-9-9-x-9-9-x--     -9-9-x-9-9-x--             -9--x-9-x-9-x-9-|
--x-x-x-x-x-x-x-x-x-x-x-x--     -x-x-x-x-x-x--             -x--x-x-x-x-x-x-|
--x-x-x-x-x-x-x-x-x-x-x-x--     -x-x-x-x-x-x--             -x--x-x-x-x-x-x-|

  (repeat x2 that part from above)
  ( the second time end up with:


                                         (listen to changes of chords)
--0-0-0-0-0-0-0-0-0-0-0-0--           --0-0-0-0------x-0-x-0-0-0-0--|
--0-0-0-0-0-0-0-0-0-0-0-0--           --0-0-0-0------x-0-x-0-0-0-0--|
--9-9-9-9-9-9-9-9-9-9-9-9-- And then  --6-6-6-6--(x3)x-6-x-6-6-6-6--| keep
--9-9-9-9-9-9-9-9-9-9-9-9--           --6-6-6-6------x-6-x-6-6-6-6--| going
--0-0-0-0-0-0-0-0-0-0-0-0--           --4-4-4-4------x-4-x-4-4-4-4--| x4times
--0-0-0-0-0-0-0-0-0-0-0-0--           --x-x-x-x------x-x-x-x-x-x-x--|

--0-0-0-0-------0-0-0-0---------                      -0---            -0--|
--0-0-0-0-------0-0-0-0---------                      -0---            -0--|
--9-9-9-9--(x4)-9-9-9-9--(x4)--- and start again from -6--- all the way-9--|
--9-9-9-9-------9-9-9-9---------                      -6--- to         -9--|
--7-7-7-7-------0-0-0-0---------                      -4---            -0--|
--0-0-0-0-------0-0-0-0---------                      -x---            -0--|

(CHORRUS)

(Bridge)
--0-0-0-0------0-0-0-0------0-0-0-0-------|
--0-0-0-0------0-0-0-0------0-0-0-0-------|
--9-9-9-9-(x2)-6-6-6-6-(x2)-4-4-4-4--(x4)-|  repeat bridge (x4)
--9-9-9-9------6-6-6-6------4-4-4-4-------|
--7-7-7-7------4-4-4-4------2-2-2-2-------|
--0-0-0-0------x-x-x-x------x-x-x-x-------|

(i dont know what Clark's playing during the chorrus and bridge)

(Chorrus)

FIN.  enjoy =)
Tap to rate this tab
 
# A B C D E F G H I J K L M N O P Q R S T U V W X Y Z