Song name
# A B C D E F G H I J K L M N O P Q R S T U V W X Y Z

Dave Navarro - Sunny Day tab

Hi. This is not a amazing tab but it can be a first step in this cool song.
If you have something to add,please do and i'll update w/credits.I don't have enough 
to tab everything, so any help is welcome.
Thanks

Dave Navarro : Sunny Day
From "Trust No One" (2001)

Intro:

e||----------5-5-----------5--3---|   (please listen to the song for rhythm
B||--5-5/-7--3-3---5-5/-7--3--3---|                                & time)
G||--6-6/-8--4-4---6-6/-8--4--4---|
D||--7-7/-9--5-5---7-7/-9--5--5---|
A||-------------------------------|
E||-------------------------------|

Riff:
e||--15------15-----------||--15------15---------13~--|
B||----14~-14--14~-12~----||----14~-14--14~-12~-------|
G||------------------12~--||------------------12~-----|
D||-----------------------||--------------------------|
A||-----------------------||--------------------------|
E||-----------------------||--------------------------|

Verse:
"It's a sunny day outside
Lovely sunny day outside
Happy butterfly outside
I'm locked up inside"

e||-------------||
B||--5-5--3-3---|| or A G (it's just a base)Play the riff sometimes in
G||--6-6--4-4---||                                      de verses
D||--7-7--5-5---||
A||-------------||
E||-------------||

Chorus:
"I don't know if I can hear another tale of how amazing you can be
I don't know if I can hear another tale of how amazing you can be"

e||-------------||
B||-------------||          Or (D F Eb)*Distortion High Gain*
G||--7-7--10-8--||
D||--7-7--10-8--||  X2
A||--5-5--8--6--||
E||-------------||

Verse:
"Such a lovely day outside
Fairies waiting
Birds are flying in the sky
Office meeting
Perfect temperature outside
Let's go swimming
Freezing deep inside"

e||-------------||
B||--5-5--3-3---|| or A G (Play the riff sometimes in de verses)
G||--6-6--4-4---||
D||--7-7--5-5---||
A||-------------||
E||-------------||

Chorus:
"I don't know if I can hear another tale of how amazing you can be
I don't think that I have really ever seen just how amazing you can be"

e||-------------||
B||-------------||          Or (D F Eb)*Distortion High Gain*
G||--7-7--10-8--||
D||--7-7--10-8--||  X2
A||--5-5--8--6--||
E||-------------||

"I think he play something like that. At least u can get an idea...and please listen de song.
I met some friends of mine
I used to call them friends
One of them was not so hairy
One of them was not so scary
I ran into a girl I knew before I was on TV
She stopped to get my number
Cause she said that she was glad to see me"

e||---------------------------||
B||---------------------------||
G||--7/8-5--7/8-5-5/7-4-5/7-4-||

I didn't tab de solo yet.

Again chorus:
"I don't think that I have really ever seen just how amazing you can be
I don't think that I have really ever seen just how amazing you can be"

e||-------------||
B||-------------||          Or (D F Eb)*Distortion High Gain*
G||--7-7--10-8--||
D||--7-7--10-8--||  X2
A||--5-5--8--6--||
E||-------------||

Corrections r welcome too.
(dont.trust.me.dear@gmail.com)
Tap to rate this tab
 
# A B C D E F G H I J K L M N O P Q R S T U V W X Y Z