Song name
# A B C D E F G H I J K L M N O P Q R S T U V W X Y Z

Dave Navarro - The Bed tab

Standard tunning              THE BED


intro is this bassline
Let ring throughout entire measure, then repeat
G|--------------------------------|---
D|--------------------------------|---
A|---------0--------1-------0-----|---
E|-3----------------------------3-|---

And this is the place she took the razor...Strum slowly
E|------3--3--3-3----------------------------------|--
B|------3--3--3-3--1-1--1-1--1--1-1-1-1--1-1--1-1--|--
G|----0-0--0--0-0--0-0--0-0--2--2-2-2-2--0-0--0-0--|--
D|-0--0-0--0--0-0--2-2--2-2--2--2-2-2-2--2-2--2-2--|--
A|-2--2-2--2--2-2--3-3--3-3--0--0-0-0-0--3-3--3-3--|--
E|-3--3-3--3--3-3----------------------------------|--

And I said oh-o oh-o oh-o what a feeling  Repeat 2x's
E|-0--0-0--2--2-2-----------------|-----------------|
B|-1--1-1--3--3-3--5--5-5--7--7-7-|-3-3--3--3-3-3-3-|
G|-2--2-2--4--4-4--5--5-5--7--7-7-|-4-4--4--2-0-2-4-|
D|-2--2-2--4--4-4--5--5-5--7--7-7-|-5-5--5--5-5-5-5-|
A|-0--0-0--2--2-2--3--3-3--5--5-5-|-----------------|
E|--------------------------------|-3-3--3--3-3-3-3-|


Tap to rate this tab
 
# A B C D E F G H I J K L M N O P Q R S T U V W X Y Z